Finger Eleven - Sad Exchange Chords & Tabs

 

Sad Exchange Chords & Tabs

Finger Eleven Chords & Tabs

Version: 1 Type: Bass Tab 0 ratings
1 star 2 stars 3 stars 4 stars 5 stars
comments

Sad Exchange Bass Tab

   
Band- Finger Eleven
Song- Sad Exchange

Gtr I (B E A D G) - 'Untitled'

 Intro
  Q=80
 4/4
  Gtr I
  Wx3          H    Q  E S S
|------------|---------------|
|------------|---------------|
|------------|-----------4---|
|------------|---------------|
|------------|---------------|


 Verse
  S S S S S S S S H      S S S S S S S S H
|----------------------|----------------------|
|----------------------|----------------------|
|-4--------------------|-4--------------------|
|----------------------|----------------------|
|---2-2-2---2-2-2------|---2-2-2---2-2-2------|


  S S S S S S S S H      S S S S S S S S Q  E S S
|----------------------|--------------------------|
|----------------------|--------------------------|
|-4--------------------|-4--------------------4---|
|----------------------|--------------------------|
|---2-2-2---2-2-2------|---2-2-2---2-2-2----------|


  S S S S S S S S H      S S S S S S S S H
|----------------------|----------------------|
|----------------------|----------------------|
|-4--------------------|-4--------------------|
|----------------------|----------------------|
|---2-2-2---2-2-2------|---2-2-2---2-2-2------|


  S S S S S S S S H      S S S S S S S S H
|----------------------|----------------------|
|----------------------|----------------------|
|-4--------------------|-4--------------------|
|----------------------|----------------------|
|---2-2-2---2-2-2------|---2-2-2---2-2-2------|


 Pre-Chorus
  S S S S S S S S E  Q.     S S S S S S S S E  E Q
|-------------------------|-------------------------|
|-------------------------|-------------------------|
|-------------------------|-------------------------|
|-5-5-5-5---5-5-5-5\------|-5-5-5-5---5-5-5-5\------|
|--------------------2----|--------------------2-2--|


  S S S S S S S S E  Q.     S S S S S S S S S S S S S S S S
|-------------------------|---------------------------------|
|-------------------------|---------------------------------|
|-------------------------|---------------------------------|
|-5-5-5-5---5-5-5-5\------|-5-5-5-5---5-5-5-7-7-7-7-7-7-7-7-|
|--------------------2----|---------------------------------|


 Chorus
  E S S S S E S S S S E S S   E S S S S E S S S S E S S
|---------------------------|---------------------------|
|---------------------------|---------------------------|
|---------------------------|---------------------------|
|---------------------------|---5-5-5-5---5-5-5-5---5-5-|
|-2-2-2-2-2---2-2-2-2---2-2-|---------------------------|


  E S S S S E S S S S E S S   H    H
|---------------------------|----------|
|---------------------------|----------|
|---------------------------|----------|
|---2-2-2-2---2-2-2-2---2-2-|-5----7---|
|---------------------------|----------|


 Verse
  S S S S S S S S H      S S S S S S S S H
|----------------------|----------------------|
|----------------------|----------------------|
|-4--------------------|-4--------------------|
|----------------------|----------------------|
|---2-2-2---2-2-2------|---2-2-2---2-2-2------|


  S S S S S S S S H      S S S S S S S S Q  E S S
|----------------------|--------------------------|
|----------------------|--------------------------|
|-4--------------------|-4--------------------4---|
|----------------------|--------------------------|
|---2-2-2---2-2-2------|---2-2-2---2-2-2----------|


  S S S S S S S S Q  E S S   S S S S S S S S Q  E S S
|--------------------------|--------------------------|
|--------------------------|--------------------------|
|-4--------------------4---|-4--------------------4---|
|--------------------------|--------------------------|
|---2-2-2---2-2-2----------|---2-2-2---2-2-2----------|


  S S S S S S S S Q  E S S   S S S S S S S S H
|--------------------------|----------------------|
|--------------------------|----------------------|
|-4--------------------4---|-4--------------------|
|--------------------------|----------------------|
|---2-2-2---2-2-2----------|---2-2-2---2-2-2------|


 Pre-Chorus
  S S S S S S S S E  Q.     S S S S S S S S E  E Q
|-------------------------|-------------------------|
|-------------------------|-------------------------|
|-------------------------|-------------------------|
|-5-5-5-5---5-5-5-5\------|-5-5-5-5---5-5-5-5\------|
|--------------------2----|--------------------2-2--|


  S S S S S S S S E  Q.     S S S S S S S S S S S S S S +E
|-------------------------|----------------------------------|
|-------------------------|----------------------------------|
|-------------------------|----------------------------------|
|-5-5-5-5---5-5-5-5\------|-5-5-5-5---5-5-5-7---7---7-7-(7)\-|
|--------------------2----|----------------------------------|


 Chorus
  E S S S S E S S S S E S S   E S S S S E S S S S E S S
|---------------------------|---------------------------|
|---------------------------|---------------------------|
|---------------------------|---------------------------|
|---------------------------|---5-5-5-5---5-5-5-5---5-5-|
|-2-2-2-2-2---2-2-2-2---2-2-|---------------------------|


  E S S S S E S S S S E S S   E S S E S S E S S E S S
|---------------------------|-------------------------|
|---------------------------|-------------------------|
|---------------------------|-------------------------|
|---2-2-2-2---2-2-2-2---2-2-|-5-5-5-5-5-5-7-7-7-7-7-7-|
|---------------------------|-------------------------|

[ Tab from: http://www.guitartabs.cc/tabs/f/finger_eleven/sad_exchange_btab.html ]
  E S S S S E S S S S E S S   E S S S S E S S S S E S S
|---------------------------|---------------------------|
|---------------------------|---------------------------|
|---------------------------|---------------------------|
|---------------------------|---5-5-5-5---5-5-5-5---5-5-|
|-2-2-2-2-2---2-2-2-2---2-2-|---------------------------|


  E S S S S E S S S S E S S   E  E S S E  E E E E
|---------------------------|---------------------|
|---------------------------|---------------------|
|---------------------------|---------------4-2-2-|
|---2-2-2-2---2-2-2-2---2-2-|-9\-------9\---------|
|---------------------------|----2-2-2----2-------|


   Interlude
    S S S S S S S S S S S S S S S S   S S S S S S E S S S S S S E  3x
||----------------------------------|------------------------------||
||o---------------------------------|---------2-------------2-----o||
||----------------------------------|-4-----4-----2-4-----4-----2--||
||o-5-5-5-5-5-5-5-4-5-5-5-4-5-4-2-0-|-----------------------------o||
||----------------------------------|---2-2-----2-----2-2-----2----||


                                                    TP
  S S S S S S S S S S S S S S S S   S S S S S S S S H
|---------------------------------|-----------------------|
|---------------------------------|-----------------------|
|---------------------------------|-----------------------|
|-5-5-5-5-5-5-5-4-5-5-5-5-5-5-5-5-|-5-5-5-5-5-5-5-5-5/----|
|---------------------------------|-----------------------|


 Chorus
  Q  S S S S E S S S S E   E S S S S E S S S S E S S
|------------------------|---------------------------|
|------------------------|---------------------------|
|------------------------|---------------------------|
|------------------------|---7-7-7-7---7-7-7-7---7-7-|
|----4-4-4-4---4-4-4-4---|---------------------------|


  E S S S S E S S S S E S S   E S S E S S E S S E S S
|---------------------------|-------------------------|
|---------------------------|-------------------------|
|---------------------------|-------------------------|
|---4-4-4-4---4-4-4-4---4-4-|-7-7-7-7-7-7-9-9-9-9-9-9-|
|---------------------------|-------------------------|


  E S S S E. S S S E. S S   +E  S S S E. S S S E. S S
|-------------------------|---------------------------|
|-------------------------|---------------------------|
|-------------------------|---------------------------|
|-------------------------|-----7-7-7-7--7-7-7-7--7-7-|
|-4-4-4-4-4--4-4-4-4--4-4-|-(4)-----------------------|


  +E  S S S E. S S S E. S S    E  E S S  E  E E E E
|---------------------------|-----------------------|
|---------------------------|-----------------------|
|---------------------------|-----------------6-4-4-|
|-(7)-4-4-4-4--4-4-4-4--4-4-|-11\-------11\---------|
|---------------------------|-----4-4-4-----4-------|


 Guitar Solo
  S S S S E S S S S E S S S S   S S S S E S S S S E S S S S
|-----------------------------|-----------------------------|
|-----------------------------|-----------------------------|
|-----------------------------|-----------------------------|
|-----------------------------|-5-5-5-5---5-5-5-5---5-5-5-5-|
|-2-2-2-2---2-2-2-2---2-2-2-2-|-----------------------------|


  S S S S E S S S S E S S S S   E  E S S E  E E E E
|-----------------------------|---------------------|
|-----------------------------|---------------------|
|-----------------------------|---------------4-2-2-|
|-2-2-2-2---2-2-2-2---2-2-2-2-|-9\-------9\---------|
|-----------------------------|----2-2-2----2-------|


  S S S S E S S S S E S S S S   S S S S E S S S S E S S S S
|-----------------------------|-----------------------------|
|-----------------------------|-----------------------------|
|-----------------------------|-----------------------------|
|-----------------------------|-5-5-5-5---5-5-5-5---5-5-5-5-|
|-2-2-2-2---2-2-2-2---2-2-2-2-|-----------------------------|


  W           W
|----------|-------*|
|----------|-------*|
|----------|-------*|
|-2--------|-------*|
|----------|-\2----*|


Duration Legend
---------------
W - whole; H - half; Q - quarter; E - 8th; S - 16th; T - 32nd; X - 64th; a - acciaccatura
+ - note tied to previous; . - note dotted; .. - note double dotted
Uncapitalized letters represent notes that are staccato (1/2 duration)
Irregular groupings are notated above the duration line
Duration letters will always appear directly above the note/fret number it represents the
duration for.  Duration letters with no fret number below them represent rests.  Multi-
bar rests are notated in the form Wxn, where n is the number of bars to rest for.  Low
melody durations appear below the staff

Tablature Legend
----------------
 h   - hammer-on
 p   - pull-off
 b   - bend
 pb  - pre-bend
 r   - bend release (if no number after the r, then release immediately)
 /\  - slide into or out of (from/to "nowhere")
 s   - legato slide
 S   - shift slide
  - natural harmonic
[n]  - artificial harmonic
n(n) - tapped harmonic
 ~   - vibrato
 tr  - trill
 T   - tap
 TP  - trem. picking
 PM  - palm muting
\n/  - tremolo bar dip; n = amount to dip
 \n  - tremolo bar down
 n/  - tremolo bar up
/n\  - tremolo bar inverted dip
 =   - hold bend; also acts as connecting device for hammers/pulls
 <>  - volume swell (louder/softer)
 x   - on rhythm slash represents muted slash
 o   - on rhythm slash represents single note slash

Misc Legend
-----------
 |  - bar
||  - double bar
||o - repeat start
o|| - repeat end
*|  - double bar (ending)
 :  - bar (freetime)
 $  - Segno
 &  - Coda
Tempo markers -  = BPM(8/16=s8/s16), where s8 = swing 8ths, s16 = swing 16ths
Comments