Finger Eleven - My Carousel Chords & Tabs

 

My Carousel Chords & Tabs

Finger Eleven Chords & Tabs

Version: 2 Type: Tab 0 ratings
1 star 2 stars 3 stars 4 stars 5 stars
comments

My Carousel Tab

Band- Finger Eleven
Song- My Carousel

Tuning: C# (down half-step and drop D)
*This song, like all F11 songs, has 2 guitars throughout.
I only have this tabbed out for one guitar, it might be missing some stuff.*

Verse
--------------------|
--------------------|
----8-----7------8--|
-6---9-5---8---6----|
--------------------|
--------------------|

Fill 1
----------------------------|
----------------------------|
---11-11-11--11-11-11----11-|
---11-11-11--11-11-11----11-|
----9--9--9---9--9--9----9--|
-0----------0----------0----|

Pre-chorus      2nd Pre-chorus (with wah)
-----------------I----------------|
-----------------I----------------|
-----------------I----------------|
-----------------I-2-2--4-4--5-5--|
-----------------I----------------|
-2~---4~---5~-5~-I----------------|
[ Tab from: http://www.guitartabs.cc/tabs/f/finger_eleven/my_carousel_tab_ver_2.html ]
Chorus- This part's really hard to hear the guitar on, I think these are the chords.
--------------------|
--------------------|
-11-----------------|
-11--7--5--4--------|
-9---7--5--4--------|
(9)--7--5--4--------|

Post-chorus
----------------------------------------|
----------------------------------------|
----11-11---10-10----10----9-9-----8-8--|
----11-11---10-10----10----9-9-----8-8--|
-----9-9-----8-8-----8-----7-7-----6-6--|
-0-0-----0-0-----0-0---0-0-----0-0------|

Bridge
-10---------13-12---------13--|
-----10-10--------10-10-------|
------------------------------|  Fill 1
------------------------------|
------------------------------|
------------------------------|

Quiet Chorus (with whammy pedal)
--------------------------------------------|
--------------------------------------------|
-11--11-11-11--11-12-9---9--11-7--9-6-------|
--------------------------------------------|
--------------------------------------------|
--------------------------------------------|
Comments