Finger Eleven - Good Times Chords & Tabs

 

Good Times Chords & Tabs

Finger Eleven Chords & Tabs

Version: 1 Type: Bass Tab 0 ratings
1 star 2 stars 3 stars 4 stars 5 stars
comments

Good Times Bass Tab

   
Band- Finger Eleven
Song- Good Times

This song is in Half step down but i tabbed it to regular tuning
(E A D G) <---Tunning

INTRO:
   played as semi muted notes
/G:|--------------------------\-|
|D:|--------1416141614----------|
|A:|-1-1/14-----------\---------|
|E:|----------------------------|
|                                --(THeses are the same riff Its up to you witch one sounmds better the
|G:|---------------|    The First one is the Real one but the other one sounds better)
|D:|---------------|
|A:|-1-1/9-99998\--|
\E:|---------------|

Verse
G:|--------|-----------------|
D:|--------|-----------------|
A:|-3--6-8-|---1/21-21-21-21-|
E:|--------|-----------------|
[ Tab from: http://www.guitartabs.cc/tabs/f/finger_eleven/good_times_btab.html ]
Played as Semi Muted notes (Very Fast)(Along the same key of the Tom drums)
G:|--------------------------|
D:|--------------------------|
A:|-111111111111111111-------|
E:|--------------------------|

Chorus                              Im not sure about this
G:|-------------------|------------|---------|
D:|-------------------|------------|-10---6--|
A:|-1-44-666-1-44-333-|151515-15-15|---8---4-|
E:|-------------------|------------|---------|

Interlude
G:|----------------------------------------------|
D:|----------------------------------------------|
A:|-111111111111111111111-1111111111111111111111-|
E:|----------------------------------------------|

Outro (played after 4 verses of the outro
G:|---------------------------------|
D:|---------------------------------|
A:|-1-11-11-4-44-44-6-66-66-8-88-88-|
E:|---------------------------------|

G:|---------------------------------|
D:|---------------------------------|
A:|-1-11-11-4-44-44---------1-11-11-|
E:|-----------------4-44-44---------|
Comments