Finger Eleven - First Time Chords & Tabs

 

First Time Chords & Tabs

Finger Eleven Chords & Tabs

Version: 6 Type: Tab 0 ratings
1 star 2 stars 3 stars 4 stars 5 stars
comments

First Time Tab

Finger 11
First Time
Tab By: Anton
E-mail: alien_anton87@hotmail.com
Tuning: top E string down a full step and everything else down half a step

Intro: Listen to song to get # of strums!

---------------------------------------------
---------------------------------------------
-3-2-x-x-x----0-0----------------------------
-3-2-x-x-x-4x-0-0----------------------------
-3-2-x-x-x----0-0x7--------------------------

Chorus:
[ Tab from: http://www.guitartabs.cc/tabs/f/finger_eleven/first_time_tab_ver_6.html ]
--------------------------------------------
--------------------------------------------
--------------------------------------------
--7-7-x-x-2-2-x-x-3-3-x-x-2-2-2-------------
--7-7-x-x-2-2-x-x-3-3-x-x-2-2-2-------------
--7-7-x-x-2-2-x-x-3-3-x-x-2-2-2-------------

D-7-7-x-x-9-9-x-x-3-3-3-x-x-0-0-0-0---------
A-7-7-x-x-9-9-x-x-3-3-3-x-x-0-0-0-0---------
E-7-7-x-x-9-9-x-x-3-3-3-x-x-0-0-0-0---------

Bridge:

D-9--------------12---------5-5-5----2-2-2-----------
A-x--------------xx---------5-5-5----2-2-2---whole thing 4x
E-9--------------12---------5-5-5----2-2-2------------

Thats all! listen to the song for exact number of strumming..its pretty
easy to figure out..c'ya..e-mail me with suggestions comments and such..bye!
Comments