Finger Eleven - Famous Chords & Tabs

 

Famous Chords & Tabs

Finger Eleven Chords & Tabs

Version: 2 Type: Bass Tab 0 ratings
1 star 2 stars 3 stars 4 stars 5 stars
comments

Famous Bass Tab

Band- Finger Eleven
Song- Famous

Tuning : BEAD

There is no bass during the first verse

Pre chorus
|--------------------------|
|--------------------------|
|--------------------------|
|---5~--7~--4~--55-555-55--|
[ Tab from: http://www.guitartabs.cc/tabs/f/finger_eleven/famous_btab_ver_2.html ]
Chorus
|--------------------------------------------|
|--------------------------------------------|
|---------22--00------------00--22-2---------|
|---44-4----------44-4--22------------22-22--|

Second Verse
|-----------------------|
|-----------------------|
|---22-2--3--0-2-3-2-2--|
|-----------------------|
It works, if it isn't basically correct

Then the interlude

|-------------------------------|
|-------------------------------|
|-------------------------------|
|--2--4---2--4--2-4--3--3--2--4-|
Comments