Finger Eleven - Drag You Down Chords & Tabs

 

Drag You Down Chords & Tabs

Finger Eleven Chords & Tabs

Version: 5 Type: Tab 0 ratings
1 star 2 stars 3 stars 4 stars 5 stars
comments

Drag You Down Tab

Finger Eleven, Drag You Down.
 Tabbed by Kenny Patrick, thekoder@yahoo.com.
 
Intro #1- Play 4 times


----------------------
----------------------
----------------------
---6-----4-----6-----6
----------------------
-4---7-5-----4---7-5--

Intro #2- Play 4 times (Distortion)

------------------------
----2-2-2-2-------2-2-2-
------------------------
------------------------
-0-----------0-1--------
-0-----------0-1--------

Verse

It's biting
It's teething
It's biting
I'm bleeding

Play intro #2 twice

It's calling
It's crawling
It's calling
and I'm falling

Play intro #2 twice

Pre-chorus

-----------------
---6-5---6-5-----
-----------------
-----------------
-0-----0---------
-----------------

Chorus
[ Tab from: http://www.guitartabs.cc/tabs/f/finger_eleven/drag_you_down_tab_ver_5.html ]
--------------------------------------
--------------------------------------
--------------------------------------
-4-4-4-5-5-4-4-----7-7-7-5-5-4-4------
-4-4-4-5-5-4-4-----7-7-7-5-5-4-4------
-4-4-4-5-5-4-4-----7-7-7-5-5-4-4------

Play intro #2 4 times

In the last part of verse 2, play this:

---------------
---------------
---------------
-X-X-X-X-X-X-X-
-X-X-X-X-X-X-X-
-X-X-X-X-X-X-X-

Play intro #2 twice

Play pre-chorus

Play chorus

Play intro #1 6 times. Another guitar is playing a solo during this but I didn't take the time to tab it. Sorry folks!

Bridge

--------------------------------------------------
--------------------------------------------------
--------------------------------------------------
-5-5-5-5-5-5-5-5-4-4-4-4-4-4-4-4-X-X-X-X-X-X------
-5-5-5-5-5-5-5-5-4-4-4-4-4-4-4-4-X-X-X-X-X-X------
-5-5-5-5-5-5-5-5-4-4-4-4-4-4-4-4-X-X-X-X-X-X------


Play the chorus until the end of the song. 
:: Ultimate Guitar Archive :: 
http://www.ultimate-guitar.com 



Comments