Finger Eleven - Drag You Down Chords & Tabs

 

Drag You Down Chords & Tabs

Finger Eleven Chords & Tabs

Version: 2 Type: Tab 0 ratings
1 star 2 stars 3 stars 4 stars 5 stars
comments

Drag You Down Tab

   
email-bif_naked_kid@hotmail.com
site-kidkorn.com
(Redone on 3-7-01)

Tuning (Db,Ab,Db,Gb,Bb,Eb)1 1/2 steps down
+=8th note numbers=4th note
Intro(I'm unsure about timing for the intro)
Eb|-----------|-------| 
Bb|-----------|-------|
Gb|-----------|-------|
Db|--7-----5-7|------7|
Ab|-----------|-------|
Db|7--10-8----|7-10-8-|
   1 2+  3 + 4 1  2 34        
[ Tab from: http://www.guitartabs.cc/tabs/f/finger_eleven/drag_you_down_tab_ver_2.html ]
Verse
eb|-------|---------|
bb|-------|----3-3-3|
gb|--7-7-7|----x-x-x|
db|--x-x-x|----1-1-1|
ab|--5-5-5|---------|
Db|0------|0h1------|
            hammer on
Pre-chorus
eb|-----|----0|
bb|--5/6|--6--|
gb|-----|-----|
db|-----|-----|
ab|-----|-----|
Db|0----|5----|
   slide

Chorus
eb|-------------|-------------|
bb|-------------|-------------|
gb|-------------|-------------|
db|7-7-7-3-3-3-0|7-7-7-5-5-3-3|
ab|0-0-0-1-1-1-0|5-5-5-3-3-3-3|
Db|0-0-0-1-1-1-0|5-5-5-3-3-1-1|

Bridge
eb|-----------|-----------|---------|
bb|-----------|-----------|---------|
gb|-----------|-----------|---------|
db|8-8-8-8-8-8|7-7-7-7-7-7|1-1-1-1-1|
ab|6-6-6-6-6-6|5-5-5-5-5-5|1-1-1-1-1|
Db|6-6-6-6-6-6|5-5-5-5-5-5|1-1-1-1-1|

Ending lead riff
eb|---18------|
bb|22----22---|
gb|---------21|
db|-----------|
ab|-----------|
Db|-----------|
It's that but it has little random differnces
Comments