Finger Eleven - Drag You Down Chords & Tabs

 

Drag You Down Chords & Tabs

Finger Eleven Chords & Tabs

Version: 1 Type: Tab 0 ratings
1 star 2 stars 3 stars 4 stars 5 stars
comments

Drag You Down Tab

   
Drag You Down - Finger Eleven	
Tuning: Db Ab Db Gb Bb Eb

 ^  = Bend String Up
 _  = Pull-Off

 h  = Hammer-On

Eb|---------------------------|    |-------------------------| 
Bb|---------------------------|    |-------------------------|
Gb|-----2-----0-----2-----2---|    |-------------------------|
Db|---------------------------| OR |----7-----5----7-----7---|
Ab|---0---3-1-----0---3-1-----|    |------5/3--------5/3-----|
Db|---------------------------|    |--7----------7-----------|

              X4

Played before and after Scott sings:

|-------------------------|    |----------------0-0-0----|
|-----3-3-3----------3^---|    |----------------0-0-0----|
|-------------------------|    |----7-7-7-7-----7-7-7----|
|--0-----------0--1-------| OR |----x-x-x-x--------------|
|--0-----------0--1-------|    |----5-5-5-5--------------|
|--0-----------0--1-------|    |-0----------0-1----------|

   X4 pause X2 pause X2     


Played during "The perfect sound..."

|------------------|
|-----6-5----6-5---|
|------------------|
|---5------5-------|
|------------------|
|------------------|

And we're at the chorus:

|------------------------------------|
|------------------------------------|
|-------------------7-7-7------------|
|---0-0-0--1--0-1---7-7-7--3-3-1-0---|
|---0-0-0--1--0-1---5-5-5--3-3-1-0---|
|---0-0-0--1--0-1---5-5-5--3-3-1-0---|

                 X4

Again, played before and after Scott sings:

|-------------------------|    |----------------0-0-0----|
|-----3-3-3----------3^---|    |----------------0-0-0----|
|-------------------------|    |----7-7-7-7-----7-7-7----|
|--0-----------0--1-------| OR |----x-x-x-x--------------|
|--0-----------0--1-------|    |----5-5-5-5--------------|
|--0-----------0--1-------|    |-0----------0-1----------|

   X4 pause X2 pause X2     

Played during "The perfect sound..."

|------------------|
|-----6-5----6-5---|
|------------------|
|---5------5-------|
|------------------|
|------------------|

Back at the chorus:

|------------------------------------|
|------------------------------------|
|-------------------7-7-7------------|
|---0-0-0--1--0-1---7-7-7--3-3-1-0---|
|---0-0-0--1--0-1---5-5-5--3-3-1-0---|
|---0-0-0--1--0-1---5-5-5--3-3-1-0---|

                 X4

Solo played by guitar one:
[ Tab from: http://www.guitartabs.cc/tabs/f/finger_eleven/drag_you_down_tab.html ]
|----------------------------------------------------------------------------------------------|
|----------------------------------------------------------------------------------10----------|
|---6-7-6-7-6-7-6-7-6-7-9-10--6-7-9-10-------------------------9-9h10_9\7-9--9^-10----10-9-7---|
|----------------------------------------8-8--8-10-8-10-7--8-----------------------------------|
|----------------------------------------------------------------------------------------------|
|----------------------------------------------------------------------------------------------|


|-------------------------------------------------------------------|
|------------------------------8---10^------------------------------|
|---9h10-7h9-6h7--6-------10-7---9----------------------------------|
|--------------------8-7--------------------------------------------|
|-------------------------------------------------------------------|
|-------------------------------------------------------------------|

While guitar two repeats:

|---------------------------|    |-------------------------| 
|---------------------------|    |-------------------------|
|-----2-----0-----2-----2---|    |-------------------------|
|---------------------------| OR |----7-----5----7-----7---|
|---0---3-1-----0---3-1-----|    |------5/3--------5/3-----|
|---------------------------|    |--7----------7-----------|

Quick riff before last chorus:

|-----------------------------------------------------|
|-----------------------------------------------------|
|-----------------------------------------------------|
|---6-6-6-6-6-6-6--5-5-5-5-5-5-5--0--0--0--0--0---0---|
|---6-6-6-6-6-6-6--5-5-5-5-5-5-5--0--0--0--0--0---0---|
|---6-6-6-6-6-6-6--5-5-5-5-5-5-5--0--0--0--0--0---0---|

Where guitar one repeats:

|---15-17-18-17-18-20-18-17-15-17-18-17-15----20---|
|------------------------------------------19------|
|--------------------------------------------------|
|--------------------------------------------------|
|--------------------------------------------------|
|--------------------------------------------------|

And guitar two repeats:

|------------------------------------|
|------------------------------------|
|-------------------7-7-7------------|
|---0-0-0--1--0-1---7-7-7--3-3-1-0---|
|---0-0-0--1--0-1---5-5-5--3-3-1-0---|
|---0-0-0--1--0-1---5-5-5--3-3-1-0---|

Repeating goes until end of song.

Comments