Finger Eleven - Drag You Down Chords & Tabs

 

Drag You Down Chords & Tabs

Finger Eleven Chords & Tabs

Version: 1 Type: Bass Tab 0 ratings
1 star 2 stars 3 stars 4 stars 5 stars
comments

Drag You Down Bass Tab

   
Bass Tab
Artist : Finger Eleven
Song : Drag You Down
Album : The Greyest Of Blue Skies
Tabbed by : Matt "inwiththenew@hotmail.com

Here is Drag You Down in Drop D flats for all the four stringers
out there,  the orginal tab done by "The Warlord"  is excellent,
I will put it first and then I will put my version underneath

BASS TAB
ARTIST:FINGER ELEVEN
TITLE:DRAG YOU DOWN
ALBUM:THE GREYEST OF BLUE SKIES(2000)
TABBED BY: "THE WARLORD"-ADROCK17@EMAIL.COM

tuning:Bb,Eb,Ab,Db,(Gb)-not used
suprisingly easy song...only five parts:

heavy part:
Bb:-3--3h4---+

verse:
Ab:-5-4-3-2----------+
Eb:---------5-4-3-2--+

chorus:(this is tricky...timing is everything)
Eb:--------------3-33-11--------+
Bb:-3-333-4-3~34----------3h4---+

solo:
Ab:-0~----3-1---+

interlude:
Eb:-444-444-44-333-333-33--------------+
Bb:------------------------3-33-33-33--+
[ Tab from: http://www.guitartabs.cc/tabs/f/finger_eleven/drag_you_down_btab.html ]
thats it...structure:
rest until 0:19
heavy x 4
verse
heavy x 2
verse
rest 'till 0:53
chorus x 4
heavy x 4
verse
heavy x 2
verse
rest 'till 1:45
chorus x 4
rest 'till 2:14
solo x 8
interlude
chorus x 8, end



tuning :  Db, Ab, Db, Gb

verse
Gb|----------------
Db|----------------*
Ab|----------------*
Db|--12-----12-13--

Gb|-------------------------|
Db|-------------------------|
Ab|-------------------------|
Db|-17-16-15-14-13-12-11-10-|

chorus
Gb|------------------------------|
Db|------------------------------|
Ab|------------------------------|
Db|-0-0-0--1--0-1--5-5-5-3-3-1-0-|

bridge/interlude
Gb|--------------
Db|--------------*
Ab|--------------*
Db|--7----10--8--

Gb|-------------------------------------------------|
Db|-------------------------------------------------|
Ab|-------------------------------------------------|
Db|-6-6-6-6-6-6-6-6-5-5-5-5-5-5-5-5-0-0-0-0-0-0-0-0-|

have fun , song kicks ass

Comments