Finger Eleven - Costume For A Gutterball Chords & Tabs

 

Costume For A Gutterball Chords & Tabs

Finger Eleven Chords & Tabs

Version: 2 Type: Bass Tab 0 ratings
1 star 2 stars 3 stars 4 stars 5 stars
comments

Costume For A Gutterball Bass Tab

   
Song: Costume for a Gutterball

Band:  Finger Eleven

CD: Tip

Tabbed by: Bassinator

This is one of Finger Eleven’s older songs but it is still a great song.


Tuning: (from low to high) D
                      	   A
			   D
			   G
   


\ = slide 


Intro

D|6-6-6-6---6-6-6-6---6-6-6-6---6-6-6-6---------|
A|----------------------------------------------|
D|----------------------------------------------|
G|----------0----------0-----------0-----------0|


After Playing this, the guitar kicks in.


Verse 1(0:05)

|--6---6-6-6-6----6-6-6-6----6-6-6-6---------|       Play this part 8 times
|--------------------------------------------|
|--------------------------------------------|
|------------------0----------0------------0-|



Chorus 1(0:40)

Singer: So slow, you see me disappear,…….
|--------------------------------------------|    Play this part 2 times
|--------------------------------------------|
|--------------------------------------------|
|--2-2-5-5-12-12-12-11-10-2-2-5-5-10-10-7-7-7|


Singer: Caught in another memory…..
|-------------------------------------------------|     Play this part 2 times.
|-------------------------------------------------|
|-------------------------------------------------|
|---5-5-5-5-7-7-7-7\-2-2-2-2-2-9-11-2-2-2-2-2-9-11|



|------------------|
|------------------|
|------------------|
|--5-5-5-5-2-2-7-7-|



Verse 2(1:22)

|6-6-6-6---6-6-6-6---6-6-6-6---6-6-6-6---------|
|----------------------------------------------|
|----------------------------------------------|
|----------0----------0-----------0-----------0|


|--6---6-6-6-6----6-6-6-6----6-6-6-6--------|      Play this 7 times
|-------------------------------------------|
|-------------------------------------------|
|------------------0----------0--------0----|



Chorus 2(1:59)

Singer: So slow, you see me disappear… 

|--------------------------------------------|  Play this part 2 times
|--------------------------------------------|
|--------------------------------------------|
|--2-2-5-5-12-12-12-11-10-2-2-5-5-10-10-7-7-7|


[ Tab from: http://www.guitartabs.cc/tabs/f/finger_eleven/costume_for_a_gutterball_btab_ver_2.html ]
|-------------------------------------------------|     Play this part 2 times.
|-------------------------------------------------|
|-------------------------------------------------|
|---5-5-5-5-7-7-7-7\-2-2-2-2-2-9-11-2-2-2-2-2-9-11|




|------------------|
|------------------|
|------------------|
|--5-5-5-5-2-2-7-7-|




Bridge Section(2:41)


|--------------------------------------|
|--------------------------------------|
|--------------------------------------|
|-11-9-11---11-9-11---11-9-11---11-9-11|


|------------------------------------------------------|
|------------------------------------------------------|
|------------------------------------------------------|
|-0---11-9-11---0---11-9-11---0---11-9-11---0---11-9-11|


|--------|
|--------|
|--------|
|-7---7-7|



|------------------------------------------------------|
|------------------------------------------------------|
|------------------------------------------------------|
|-0---11-9-11---0---11-9-11---0---11-9-11---0---11-9-11|


|-----------------------------|
|-----------------------------|
|-----------------------------|
|-7---7-7---7-7-10-7-10-10-9-7|


|--------------|
|--------------|
|--------------|
|-5-5-5-5-5-5-5|


Chorus 3(3:33)

Singer: So slow, you see me disappear…

|--------------------------------------------|      Play this part 2 times
|--------------------------------------------|
|--------------------------------------------|
|--2-2-5-5-12-12-12-11-10-2-2-5-5-10-10-7-7-7|



|-------------------------------------------------|    Play this part 3 times.
|-------------------------------------------------|
|-------------------------------------------------|
|---5-5-5-5-7-7-7-7\-2-2-2-2-2-9-11-2-2-2-2-2-9-11|


|------------------|
|------------------|
|------------------|
|--5-5-5-5-2-2-7-7-|


Verse 3(4:25)

|-6-6-6-6---6-6-6-6-----|    Play this part 5 times
|-----------------------|
|-----------------------|
|----------0----------0-|

Gradually fade out while playing this part.

That’s it.  It’s pretty accurate.  Please rate it and have fun.


Finger Eleven is:
Vocals: Scott Anderson.
Guitar 1: James Black.
Guitar 2: Rick Jackett.
Bass: Sean Anderson.
Drums: Rich Beddoe.
Comments