Finger Eleven - Costume For A Gutterball Chords & Tabs

 

Costume For A Gutterball Chords & Tabs

Finger Eleven Chords & Tabs

Version: 1 Type: Bass Tab 0 ratings
1 star 2 stars 3 stars 4 stars 5 stars
comments

Costume For A Gutterball Bass Tab

Costume For a gutterball
DarkKarma17@aol.com
Tunning: BEAD

Intro

|-----------------------|
|--4-4-4-4----4-4-4-4---|
|-----------------------|
|----------2----------2-|

|--------------------------------------------------------------|
|--------------------------------------------------------------|
|-----------------------------10-9-----------------------------|
|--222--555--12-12-12--9-9-9--------222--555--10-10-10--7-7-7--|

[ Tab from: http://www.guitartabs.cc/tabs/f/finger_eleven/costume_for_a_gutterball_btab.html ]
|-------------------------------------------------------|
|-------------------------------------------------------|
|-------------------------------------------------------|
|--9-9--12-12--222222---222222---222222--99-14-14-12-12-|
               \Fast/   \Fast/   \Fast/

Intro again
Chorus first part

Then this...
|-------|
|---4---|
|-------|
|-------|
  \Fast/

Chorus Second part

Solo

|-----------------------------|
|----6-4-6---6-4-6--6-4-6--4--|
|-----------------------------|
|--0-------0-------0----------|
Reapeat...just listen to song then

|-----------------------|
|--4-3-4-4-4---4-3-2----|
|-----------------------|
|-----------------------|


then...
"Caught in one more..."
|---------------|
|---------------|
|---------------|
|--2----2----2--|

Chorus again..

Then end with the Intro

Comments