Finger Eleven - Conversations Chords & Tabs

 

Conversations Chords & Tabs

Finger Eleven Chords & Tabs

Version: 1 Type: Tab 0 ratings
1 star 2 stars 3 stars 4 stars 5 stars
comments

Conversations Tab

   
Artist: Finger Eleven
Title: Conversations
Album: Finger Eleven

Tuning: Db Ab Db Gb Bb eb


Intro/Verse:
-|--------7---------------------------------------------|
-|--------x---------------------------------------------|
-|--55555-4--77777-5--101010-1010-9-99-99999-999999-5---| 4x
-|--55555-5--55555-5---7-7-7--7-7-7-77-77777-555555-5---|
-|--00000----88888-8------------------------------------|
-|------------------------------------------------------|

-|--xxxxxxxx---|
-|--xxxxxxxx---|
-|--xxxxxxxx---| Do this pick string muting after the 3rd and 4th
-|--xxxxxxxx---| time you play the verse part,
-|--xxxxxxxx---|
-|--xxxxxxxx---|


Pre-Chorus:
-|------0--55---|
-|----6----66---|
-|--7------77---|
-|--------------|
-|--------------|
-|--------------|


Chorus:
-|----------------------|- -|-------------------------|
-|----------------------|- -|-------------------------|
-|----5-6---5-6---------|- 3x -|----------------------|
-|--7-----7--------7-5--|- then -|--------------------|
-|---------------5------|- -|--0-3-2--0-3-2-----------|
-|----------------------|- -|---------------0---------|


Verse:
-|--------7---------------------------------------------|
-|--------x---------------------------------------------|
-|--55555-4--77777-5--101010-1010-9-99-99999-999999-5---| 3x
-|--55555-5--55555-5---7-7-7--7-7-7-77-77777-555555-5---|
-|--00000----88888-8------------------------------------|
-|------------------------------------------------------|

-|--xxxxxxxx---|
-|--xxxxxxxx---|
-|--xxxxxxxx---|
-|--xxxxxxxx---|
-|--xxxxxxxx---|
-|--xxxxxxxx---|


Pre-Chorus:
-|------0--55---|
-|----6----66---|
-|--7------77---|
-|--------------|
-|--------------|
-|--------------|

[ Tab from: http://www.guitartabs.cc/tabs/f/finger_eleven/conversations_tab.html ]
Chorus:
-|----------------------|- -|-------------------------|
-|----------------------|- -|-------------------------|
-|----5-6---5-6---------|- 2x -|----------------------|
-|--7-----7--------7-5--|- then -|--------------------|
-|---------------5------|- -|--0-3-2--0-3-2-----------|
-|----------------------|- -|---------------0---------|


Bridge:
-|-----------------|- -|-------------------------|
-|-----------------|- -|-------------------------|
-|----22---00-2br--|- 8x -|----------------------|
-|-----------------|- -|-------------------------|
-|--1----4---------|- -|-------------------------|
-|-----------------|- -|--000-222-333-/777-------|

-|-----------------|- -|-------------------------|
-|-----------------|- -|-------------------------|
-|----22---00-2br--|- 2x -|----------------------|
-|-----------------|- -|-------------------------|
-|--1----4---------|- -|-------------------------|
-|-----------------|- -|--000-222-333-/777-------|

-|-----------------|- -|-----------------------------------------------|
-|-----------------|- -|-----------------------------------------------|
-|----22---00-2br--|- 2x -|--------------------------------------------|
-|-----------------|- -|-----------------------------------------------|
-|--1----4---------|- -|-----------------------------------------------|
-|-----------------|- -|--000-222-333-/777--000-222-333-/10-1010-------|


-|--5---|
-|--6---|
-|--7---| This part is played a bunch of times
-|------| under the bassline, listen for timing.
-|------|


Pre-Chorus
-|--55---|
-|--66---|
-|--77---|
-|-------|
-|-------|


Chorus:
-|-----------------------|
-|-----------------------|
-|----5-6---5-6----------| 4x
-|--7-----7--------7-5---|
-|---------------5-------|
-|-----------------------|


Outro:
-|--------|
-|--------|
-|--------|
-|--------|
-|--12\---|

-|----------------------|
-|----------------------|
-|----------------------| 4x
-|----------------------|
-|--0-3-2-0-3-2---------|
-|--------------0-7-5---|

-|--5555-55-55---|
-|--6666-66-66---|
-|--7777-77-77---|
-|---------------|
-|---------------|
Comments