Finger Eleven - Consolation Day Chords & Tabs

 

Consolation Day Chords & Tabs

Finger Eleven Chords & Tabs

Version: 1 Type: Tab 0 ratings
1 star 2 stars 3 stars 4 stars 5 stars
comments

Consolation Day Tab

   
T1: Byron Coombes, Cartman_02@hotmail.com, Finger Eleven, Consolation
Day

S1: Consolation Day (Finger Eleven)

Tabbed by Byron Coombes

Cartman_02@hotmail.com

Tuned down 1/2 a step - Eb Ab Db Gb Bb Eb 

Verse (tremolo w/ reverb effect):

Eb--0-0-----------------------------------------------------------------
Bb--4-3-------7---------------------------------------------------------
Gb--4-4-----9---9---9-----5-------4-------------------------------------
Db--2-2---9-------9-----5---5---4---4-----------------------------------
Ab------7-------------3-------2-----------------------------------------
Eb----------------------------------------------------------------------

Chorus:(tremolo effect with or without distortion) (chords picked out
first time through) (not quite sure about third chord on
first time through the chorus, e-mail me if you think you know it)
[ Tab from: http://www.guitartabs.cc/tabs/f/finger_eleven/consolation_day_tab.html ]
Eb----------------------------------------------------------------------
Bb--------------------------------------------------------0-0-0-0-0-0---
Gb--5-5-5-5-5-5-5-5-5-9-9-9-9-9-9-9-9-9-5-5-5-5-5-5-5-5-5-2-2-2-2-2-2---
Db--5-5-5-5-5-5-5-5-5-9-9-9-9-9-9-9-9-9-5-5-5-5-5-5-5-5-5-2-2-2-2-2-2---
Ab--3-3-3-3-3-3-3-3-3-7-7-7-7-7-7-7-7-7-3-3-3-3-3-3-3-3-3-0-0-0-0-0-0---
Eb----------------------------------------------------------------------

Bridge (heavy distortion):

Eb----------------------------------------------------------------------
Bb----------------------------------------------------------------------
Gb--9-9-9/12-7-7-7-7-77-5-5-5/7-2-2-2-2-2-2-----------------------------
Db--9-9-9/12-7-7-7-7-77-5-5-5/7-2-2-2-2-2-2-----------------------------
Ab--7-7-7/10-5-5-5-5-55-3-3-3/5-0-0-0-0-0-0-----------------------------
Eb----------------------------------------------------------------------

Second guitar has little fills like:

Gb---9^---9^-9^9^9^9^9^9^9^9^-------------------------------------------
Db--7---7---7-----------------------------------------------------------

B1: Submit
Comments