Finger Eleven - Condenser Chords & Tabs

 

Condenser Chords & Tabs

Finger Eleven Chords & Tabs

Version: 2 Type: Bass Tab 0 ratings
1 star 2 stars 3 stars 4 stars 5 stars
comments

Condenser Bass Tab

"Condenser"
Finger Eleven
Album : Tip
DarkKarma17@aol.com
tunning: BEAD

|------------------------|
|------------------------|
|--------66-7------------|
|--666/9------666--666---|


|--------------------|
|--------------------|
|--------77----------|
|--666\5----7666-666-|
[ Tab from: http://www.guitartabs.cc/tabs/f/finger_eleven/condenser_btab_ver_2.html ]
Verse and Chorus, just with different rhythms...
|---------------------------------------------------------|
|---------------------------------------------------------|
|-----------9-9-9-9-------------12-12-12-12---12-12-12-12-|
|--6-6-6-6-----------11-11-11-11--------------------------|

"Spirits all keep coming down...etc.."
|-----------------------|
|-----------------------|
|--666--999--444--000---|
|-----------------------|

"is it all or is it none..."
|---------------------|
|---------------------|
|--666-666-666--------|
|--------------777----|
Comments