Finger Eleven - Complicated Questions Chords & Tabs

 

Complicated Questions Chords & Tabs

Finger Eleven Chords & Tabs

Version: 1 Type: Tab 0 ratings
1 star 2 stars 3 stars 4 stars 5 stars
comments

Complicated Questions Tab

   
Tuning: Db AB Db Gb Bb Eb

Intro:
-|--xxxxxxx--|-
-|--xxxxxxx--|-
-|--xxxxxxx--|-
-|--xxxxxxx--|-
-|--xxxxxxx--|-
-|--xxxxxxx--|-


Verse:

   Guitar 1                  Guitar 2
-|--x-xx-----|-     -|---------------------------|-
-|--x-xx-----|-     -|--10----10-----------------|-
-|--x-xx-10--|-     -|--------------12----10-----|-
-|--x-xx-10--|- 16x -|-----12----12----12----12--|- 4x
-|--x-xx--8--|-     -|---------------------------|-
-|--x-xx-----|-     -|---------------------------|-

-|--------|-
-|--10br--|-
-|--------|- Guitar 2 plays after
-|--------|- the 2nd time playing.
-|--------|-
-|--------|-


Chorus 1:

Guitar 1
-|---------------------------------------|--xxxxxxxx--|-
-|---------------------------------------|--xxxxxxxx--|-
-|-----2-5-5-7------2-5-5-7-----2-5-5-7--|--xxxxxxxx--|-
-|--0--2-5-5-7---0--2-5-5-7---0-2-5-5-7--|--xxxxxxxx--|- 4x
-|--0--0-3-3-5---0--0-3-3-5---0-0-3-3-5--|--xxxxxxxx--|-
-|--0------------0------------0----------|--xxxxxxxx--|-

Guitar 2
-|-------------------------------------------------|--xxxxxxxx--|-
-|-------------------------------------------------|--xxxxxxxx--|-
-|-------------------------------------------------|--xxxxxxxx--|-
-|--0--7-10-10-12---0--7-10-10-12---0--7-10-10-12--|--xxxxxxxx--|- 4x
-|--0--7-10-10-12---0--7-10-10-12---0--7-10-10-12--|--xxxxxxxx--|-
-|--0--7-10-10-12---0--7-10-10-12---0--7-10-10-12--|--xxxxxxxx--|-


Then..

   Guitar 1                  Guitar 2
-|--x-xx-----|-    -|---------------------------|-
-|--x-xx-----|-    -|--10----10-----------------|-
-|--x-xx-10--|-    -|--------------12----10-----|-
-|--x-xx-10--|- 3x -|-----12----12----12----12--|-
-|--x-xx--8--|-    -|---------------------------|-
-|--x-xx-----|-    -|---------------------------|-

Both guitars
-|-------------|-
-|--1414-1414--|-
-|--1212-1212--|-
-|--1010-1010--|-
-|--1010-1010--|-
-|-------------|-




Verse:

   Guitar 1                  Guitar 2
-|--x-xx-----|-     -|---------------------------|-
-|--x-xx-----|-     -|--10----10-----------------|-
-|--x-xx-10--|-     -|--------------12----10-----|-
-|--x-xx-10--|- 16x -|-----12----12----12----12--|- 4x
-|--x-xx--8--|-     -|---------------------------|-
-|--x-xx-----|-     -|---------------------------|-

-|--------|-
-|--10br--|-
-|--------|- Guitar 2 plays after
-|--------|- the 2nd time playing.
-|--------|-
-|--------|-


Chorus 1:
[ Tab from: http://www.guitartabs.cc/tabs/f/finger_eleven/complicated_questions_tab.html ]
Guitar 1
-|---------------------------------------|--xxxxxxxx--|-
-|---------------------------------------|--xxxxxxxx--|-
-|-----2-5-5-7------2-5-5-7-----2-5-5-7--|--xxxxxxxx--|-
-|--0--2-5-5-7---0--2-5-5-7---0-2-5-5-7--|--xxxxxxxx--|- 4x
-|--0--0-3-3-5---0--0-3-3-5---0-0-3-3-5--|--xxxxxxxx--|-
-|--0------------0------------0----------|--xxxxxxxx--|-

Guitar 2
-|-------------------------------------------------|--xxxxxxxx--|-
-|-------------------------------------------------|--xxxxxxxx--|-
-|-------------------------------------------------|--xxxxxxxx--|-
-|--0--7-10-10-12---0--7-10-10-12---0--7-10-10-12--|--xxxxxxxx--|- 4x
-|--0--7-10-10-12---0--7-10-10-12---0--7-10-10-12--|--xxxxxxxx--|-
-|--0--7-10-10-12---0--7-10-10-12---0--7-10-10-12--|--xxxxxxxx--|-


Chorus 2:

Guitar 1          Guitar 2
-|--------|-    -|--------|-
-|--------|-    -|--10br--|-
-|--------|-    -|--------|- 2x
-|--8--5--|-    -|--------|-
-|--8--5--|-    -|--------|-
-|--8--5--|-    -|--------|-

Both
-|----------------------------------------------|-
-|----------------------------------------------|-
-|--------10--------10--------10--------121212--|-
-|--------10--------10--------10--------101010--|-
-|--0-0-0--8--0-0-0--8--0-0-0--8--0-0-0-101010--|-
-|--0-0-0-----0-0-0-----0-0-0-----0-0-0---------|-

Play "Chorus 2" twice then, 


Guitar 1          Guitar 2
-|--------|-    -|--------|-
-|--------|-    -|--10br--|-
-|--------|-    -|--------|- 2x
-|--8--5--|-    -|--------|-
-|--8--5--|-    -|--------|-
-|--8--5--|-    -|--------|-


Bridge:

Guitar 1
-|------------------------------------------|-
-|------------------------------------------|-
-|------------------------------------------|-
-|--0-000-3--0-000-2--0-000----0-000-----3--|- 2x
-|--------------------------5--------3h5----|-
-|------------------------------------------|-

Guitar 2
-|-------------|-
-|----17br-----|-
-|---------14--|-
-|-------------|-
-|-------------|-
-|-------------|-

-|---------------------------------------|-
-|--10----10----------------10----10-----|-
-|--------------12----10-----------------|-
-|-----12----12----12----12----12----12--|-
-|---------------------------------------|-
-|---------------------------------------|-


Chorus 2:

Guitar 1          Guitar 2
-|--------|-    -|--------|-
-|--------|-    -|--10br--|-
-|--------|-    -|--------|- 2x
-|--8--5--|-    -|--------|-
-|--8--5--|-    -|--------|-
-|--8--5--|-    -|--------|-

Both
-|----------------------------------------------|-
-|----------------------------------------------|-
-|--------10--------10--------10--------121212--|-
-|--------10--------10--------10--------101010--|-
-|--0-0-0--8--0-0-0--8--0-0-0--8--0-0-0-101010--|-
-|--0-0-0-----0-0-0-----0-0-0-----0-0-0---------|-

Play "Chorus 2" once again, then...


Guitar 1          Guitar 2
-|--------|-    -|--------|-
-|--------|-    -|--10br--|-
-|--------|-    -|--------|- 2x
-|--8--5--|-    -|--------|-
-|--8--5--|-    -|--------|-
-|--8--5--|-    -|--------|-


After this play "chorus 1" 4x to end the song.
Comments