Finger Eleven - Complicated Questions Chords & Tabs

 

Complicated Questions Chords & Tabs

Finger Eleven Chords & Tabs

Version: 1 Type: Bass Tab 0 ratings
1 star 2 stars 3 stars 4 stars 5 stars
comments

Complicated Questions Bass Tab

Band- Finger Eleven
Song- Complicated Questions

Verse (also acts as bridge before last chorus)

G: ------------------------|
D: ---11---9H11------------|
A: ------------------------|
E: 9-9--9------------------|

pre-chorus & outro

G:----------------|
D:----------------|
A:----------------|
E:--9-0H7-7-9-----|

Chorus
[ Tab from: http://www.guitartabs.cc/tabs/f/finger_eleven/complicated_questions_btab.html ]
G: -----------------------------------------------------|
D: -------7--------9-7----------------16----------------|
A: ----------10P7------8-7/-------------16/19-17-16-----|
E: -5-5-5--------------------14-14-14---------------17--|

Post Chorus

G:----------------------|
D:----------------------|
A:----------------------|
E:-9-9-9-12----9-9-9-0--|

bass fill during outro ( 19's , not 1 and 9's)

G:-----------------------------|
D:-----------------------------|
A:-----------------------------|
E:-9-0H7-7-9/1919191919191919--|
Comments