Finger Eleven - Broken Words Chords & Tabs

 

Broken Words Chords & Tabs

Finger Eleven Chords & Tabs

Version: 4 Type: Tab 0 ratings
1 star 2 stars 3 stars 4 stars 5 stars
comments

Broken Words Tab

Broken Words - Finger Eleven
The Greyest Of Blue Skies

Tuning: Half Step (all finger eleven songs are in this tuning...)
Verse (Let ring)
e--------------------------------------|
B--------------------------------------|
G----------------------------4---------|
D-------------------------5------------| x3
A--------------------------------------|
E--------------------------------------|
"Your sweet little hands..."

Verse
e------------------------------------------------------------------|
B------------------------------------------------------------------|
G----------------------------------4-----------4----------------4--|
D-------------------------------5-----------4----------------2-----|
A------------------------------------------------------------------|
E------------------------------------------------------------------|
"Sometimes you don't understand, Why you can't reach..."
[ Tab from: http://www.guitartabs.cc/tabs/f/finger_eleven/broken_words_tab_ver_4.html ]
Chorus
e----------------------------------|
B----------------------------------|
G----------5--------------5--------|
D-2--------5-------2------5--------|
A-2--------3-------2------3--------|
E-0----------------0---------------|
"She's the one who saw my words..."

e----------------------------|
B----------------------------|
G--------5-----------4-------|
D-2------5-----------4-------| x2
A-2------3-----------2-------|
E-0--------------------------|
"Broken, torn at the seams...

Bridge
e-----------------------------------------|
B-----------------------------------------|
G-----------------------------------------|
D-----------------------------------------| x5
A---7-7-7-7---3-3-3-3---4-4-4-4---5-5-5-5-|
E-0---------0---------0---------0---------|

Ending (after last chorus)
e---------------------|
B---------------------|
G---------------------|
D-2---2---2---2---2---|
A-2---2---2---2---2---|
E-0---0---0---0---0---|

im 99.9% sure this is right... Please rate
Comments