Finger Eleven - Broken Words Chords & Tabs

 

Broken Words Chords & Tabs

Finger Eleven Chords & Tabs

Version: 2 Type: Tab 0 ratings
1 star 2 stars 3 stars 4 stars 5 stars
comments

Broken Words Tab

   
-------------------------------------------------------------------------------
			     Broken Words - Finger Eleven
-------------------------------------------------------------------------------

By:Lachrymal

Tuned down to Dropped Db

Verse:
eb|-------------------------|
Bb|-------------------------|
Gb|--4----4----4----4--4--4-|
Db|-5----5----5----5--4--5--|
Ab|-------------------------|
Db|-------------------------|
[ Tab from: http://www.guitartabs.cc/tabs/f/finger_eleven/broken_words_tab_ver_2.html ]
Chorus:
eb|--------------|--------------|--------------|--------------|
Bb|--------------|--------------|--------------|--------------|
Gb|----555444777-|----555444444-|----555---777-|-55555544-/-5-|
Db|-222555444777-|-222555444444-|-222555444777-|-55555544-/-5-|
Ab|-222333222555-|-222333222222-|-222333444555-|-33333322-/-3-|
Db|-222----------|-222----------|-222---444----|--------------|

Interlude Part:
eb|----------------------|
Bb|--4444----------------|
Gb|--4444-5555-6666-7777-|
Db|-24444255552666627777-|
Ab|-2----2----2----2-----|
Db|-2----2----2----2-----|

I'm not 100% sure that the interlude is correct, but it sounds really good.
Comments