Finger Eleven - Broken Words Chords & Tabs

 

Broken Words Chords & Tabs

Finger Eleven Chords & Tabs

Version: 2 Type: Bass Tab 0 ratings
1 star 2 stars 3 stars 4 stars 5 stars
comments

Broken Words Bass Tab

Band- Finger Eleven
Song- Broken Words

This is on a 5 string, or tune down to B,E,A,D

Verse
Very quiet, I just play 4's soft, and not to often that is stands out, just to fill in 
sound behind the guitar, do a variation whenever, and make it up, but it's low notes, and 
quiet.
G|----------------------------------------|
D|----------------------------------------|
A|----------------------------------------|
E|----------------------------------------|
B|----4--------4----------4---------------|

Chorus (these are just the notes, play them as many time as you like)
(She's the one who saw my words)
G|--------------------------------------|
D|--------------------------------------|
A|---------22---44----------------------|
E|-----------------------44-------------|
B|----44--------------------------------|
[ Tab from: http://www.guitartabs.cc/tabs/f/finger_eleven/broken_words_btab_ver_2.html ]
(Broken torn at the seams)
G|------------------------------------|
D|------------------------------------|
A|----------22--11111-----------------|
E|------------------------------------|
B|----44------------------------------|

Interlude

G|--------------------------------------------|
D|--------------------------------------------|
A|------6666------2222------3333------4444----|
E|--------------------------------------------|
B|--4-----------4-----------4---------4-------|


After you play that a few times, play this until it breaks into the Chorus again.

G|-------------------------------|
D|-------------------------------|
A|-------------------------------|
E|-------------------------------|
B|----4-----4------4-------------|

And then you end the song with this...

G|-------------------------------|
D|-------------------------------|
A|-------------------------------|
E|-------------------------------|
B|----4---4----4----4--4---------|
Comments