Finger Eleven - Awake And Dreaming Chords & Tabs

 

Awake And Dreaming Chords & Tabs

Finger Eleven Chords & Tabs

Version: 1 Type: Bass Tab 0 ratings
1 star 2 stars 3 stars 4 stars 5 stars
comments

Awake And Dreaming Bass Tab

Awake and Dreaming - Finger Eleven

This song is played on a five string, if you don't have a five string, you'll have to tune down to B, E, A, D.
Decide how many times you want to play each note... The Verse is written right though, is has the correct amount of notes in the tab... Chorus and Interude, you can
decide, doesn't make a huge difference...

Verse
It's played slowly…
G|-----------------------------------------
D|-1--1----------------------------------- There is a variation, I'm just 
A|----------------------2------1----------- to tired to add it in right now
E|---------------4-------------------------- (it's in the second verse)
B|------------------------------------------
[ Tab from: http://www.guitartabs.cc/tabs/f/finger_eleven/awake_and_dreaming_btab.html ]
Slow Chorus
Played slowly, listen to it to figure out when each notes is played
G|--------------------------------------------------------
D|--------------------------------------------------------
A|--2-----------2--------------4---------------2--------
E|----------------------2-------------4---------------4-- 
B|-------4---------------------------------4-------------- 

Interlude

G|-------------------------------------------------------
D|----------(3h4)-------------------------------------- You don't play what's in the 
A|------------------4-4----2-2------------------------- brackets every time…
E|---------------------------------4-4------------------
B|---4-4------------------------------------------------

After you play the Interlude, and the Chorus (heavy) to finish the song, but the Chorus is still played the same.

This is an awesome song, one of Finger Eleven's best. It's pretty easy to play, just listen in the slow part to find out when u play each note. Any comments, or corrections (although I think it's perfect) email me.

Mitch_fraser@hotmail.com (as usual, no capital letters)

Comments