Finger Eleven - Absent Elements Chords & Tabs

 

Absent Elements Chords & Tabs

Finger Eleven Chords & Tabs

Version: 1 Type: Tab 0 ratings
1 star 2 stars 3 stars 4 stars 5 stars
comments

Absent Elements Tab

   
Tuning: Db Ab Db Gb Bb Eb


Intro:
-|-----------------------|-    -|-------------------------|-
-|-----------------------|-    -|-------------------------|-
-|--666666666------------|-    -|--66666------------------|-
-|--xxxxxxxxx-5-5-5h7-7--|- 3x -|--xxxxx-5-5-5h7-5-5h7-7--|-
-|--444444444-5-5-5h7-7--|-    -|--44444-5-5-5h7-5-5h7-7--|-
-|------------5-5-5h7-7--|-    -|--------5-5-5h7-5-5h7-7--|-

-|-----------------------|-    -|-------------------------|-
-|-----------------------|-    -|-------------------------|-
-|--666666666------------|-    -|--66666------------------|-
-|--666666666-5-5-5h7-7--|- 3x -|--66666-5-5-5h7-5-5h7-7--|-
-|--444444444-5-5-5h7-7--|-    -|--44444-5-5-5h7-5-5h7-7--|-
-|------------5-5-5h7-7--|-    -|--------5-5-5h7-5-5h7-7--|-

-|-----|-
-|-----|-
-|-----|- Then play this and hold it while Scott sings,
-|--9--|- "Everyone, play along..."
-|--9--|-
-|--9--|-


Verse:

Guitar 1
-|---------------------|-    -|--------------------------|-
-|---------------------|-    -|--------------------------|-
-|--99999-55-77777-55--|-    -|---9-9-9-9-9-55-99999-55--|-
-|--77777-55-99999-55--|- 4x -|--1010101010-55-77777-55--|- 2x
-|---------------------|-    -|--------------------------|-
-|---------------------|-    -|--------------------------|-

Guitar 2
-|-------------|-
-|-------------|-
-|-------------|-
-|--7----------|-
-|--0---5---2--|-
-|------0---2--|-
   16x  8x  8x


Chorus:
-|------0-------0--|- -|--------------------|-
-|------0-------0--|- -|--------------------|-
-|--2---2---2---2--|- -|--55-77-9-9--555-5--|-
-|--2---2---2---2--|- -|--77-99-1010-777-7--|- 2x
-|--0---0---0---0--|- -|--------------------|-
-|-----------------|- -|--------------------|-

-|------0-------0--|- -|---------------------|-
-|------0-------0--|- -|---------------------|-
-|--2---2---2---2--|- -|--55-77-55-77-55-77--|-
-|--2---2---2---2--|- -|--77-99-77-99-77-99--|- 2x
-|--0---0---0---0--|- -|---------------------|-
-|-----------------|- -|---------------------|-

-|-------------|-
-|-------------|-
-|-------------|-
-|--3-3-3h5-5--|-
-|--3-3-3h5-5--|-
-|--3-3-3h5-5--|-


Verse:

Guitar 1
-|---------------------|-    -|--------------------------|-
-|---------------------|-    -|--------------------------|-
-|--99999-55-77777-55--|-    -|---9-9-9-9-9-55-99999-55--|-
-|--77777-55-99999-55--|- 4x -|--1010101010-55-77777-55--|- 2x
-|---------------------|-    -|--------------------------|-
-|---------------------|-    -|--------------------------|-

Guitar 2
-|----------------|-
-|----------------|-
-|----------------|-
-|----------------|-
-|--12\-------7/--|-
-|-------12\------|-
    8x   4x   4x


Chorus:
-|------0-------0--|- -|--------------------|-
-|------0-------0--|- -|--------------------|-
-|--2---2---2---2--|- -|--55-99-9-9--555-5--|-
-|--2---2---2---2--|- -|--77-77-1010-777-7--|- 2x
-|--0---0---0---0--|- -|--------------------|-
-|-----------------|- -|--------------------|-

-|------0-------0--|- -|---------------------|-
-|------0-------0--|- -|---------------------|-
-|--2---2---2---2--|- -|--55-77-55-77-55-77--|-
-|--2---2---2---2--|- -|--77-99-77-99-77-99--|- 2x
-|--0---0---0---0--|- -|---------------------|-
-|-----------------|- -|---------------------|-
[ Tab from: http://www.guitartabs.cc/tabs/f/finger_eleven/absent_elements_tab.html ]
-|-------------|-
-|-------------|-
-|-------------|-
-|--3-3-3h5-5--|-
-|--3-3-3h5-5--|-
-|--3-3-3h5-5--|-


Solo:

Guitar 1:
-|----------------------------17--19b19b19b-19--------------------|-
-|--/17-17-------------------------------------17--17-15----------|-
-|---------1414-14h16-17br-14----------------------------16br-14--|-
-|----------------------------------------------------------------|-
-|----------------------------------------------------------------|-
-|----------------------------------------------------------------|-

-|------------------------------19b--17----------------------22b--|-
-|--------------------------------------20-17--15---17---19-------|-
-|--14-16-16br-16-17-17br-17-19----------------17---17---19-------|-
-|----------------------------------------------------------------|-
-|----------------------------------------------------------------|-
-|----------------------------------------------------------------|-

Guitar 2                                                    
-|--------------|-
-|--------------|-
-|--55-77--9-9--|-
-|--77-99-1010--|- 14x
-|--------------|-
-|--------------|-


Bridge:
-|------------------|-     -|----------------------------|-
-|------------------|-     -|----------------------------|-
-|--5----7----9-----|-     -|--5----7----9---------------|-
-|----7----9----10--|- 12x -|----7----9----10\--333-3/5--|-
-|------------------|-     -|-------------------333-3/5--|-
-|------------------|-     -|-------------------333-3/6--|-

-|-----|-
-|-----|-
-|--5--|- Play this a bunch of times
-|--7--|- Just listen to the song for timing
-|-----|-
-|-----|-


Chorus:
-|------0-------0--|- -|--------------------|-
-|------0-------0--|- -|--------------------|-
-|--2---2---2---2--|- -|--55-77-9-9--555-5--|-
-|--2---2---2---2--|- -|--77-99-1010-777-7--|- 2x
-|--0---0---0---0--|- -|--------------------|-
-|-----------------|- -|--------------------|-

-|------0-------0--|- -|---------------------|-
-|------0-------0--|- -|---------------------|-
-|--2---2---2---2--|- -|--55-77-55-77-55-77--|-
-|--2---2---2---2--|- -|--77-99-77-99-77-99--|- 2x
-|--0---0---0---0--|- -|---------------------|-
-|-----------------|- -|---------------------|-

-|-------------|-
-|-------------|-
-|-------------|-
-|--3-3-3h5-5--|-
-|--3-3-3h5-5--|-
-|--3-3-3h5-5--|-

-|------0-------0--|- -|--------------------|-
-|------0-------0--|- -|--------------------|-
-|--2---2---2---2--|- -|--55-77-9-9--555-5--|-
-|--2---2---2---2--|- -|--77-99-1010-777-7--|- 2x
-|--0---0---0---0--|- -|--------------------|-
-|-----------------|- -|--------------------|-

-|------0-------0--|- -|---------------------|-
-|------0-------0--|- -|---------------------|-
-|--2---2---2---2--|- -|--55-77-55-77-55-77--|-
-|--2---2---2---2--|- -|--77-99-77-99-77-99--|- 2x
-|--0---0---0---0--|- -|---------------------|-
-|-----------------|- -|---------------------|-

-|-------------|-
-|-------------|-
-|-------------|-
-|--3-3-3h5-5--|-
-|--3-3-3h5-5--|-
-|--3-3-3h5-5--|-



Outro:

  Guitar 1                    Guitar 2
-|--------------------|-    -|--------------------|-
-|--------------------|-    -|--------------------|-
-|--22222222----------|-    -|--/14---------------|-
-|--22222222-3-3-3h5--|- 3x -|-------10-10-10/12--|- 3x
-|--00000000-3-3-3h5--|-    -|-------10-10-10/12--|-
-|-----------3-3-3h5--|-    -|--------8--8--8/10--|-


End with:
-|------------|-
-|------------|-
-|--22222222--|-
-|--22222222--|-
-|--00000000--|-
-|------------|-
Comments