Finger Eleven - Above Chords & Tabs

 

Above Chords & Tabs

Finger Eleven Chords & Tabs

Version: 5 Type: Tab

Above Tab

I was really suprised to find no tab for the solo. anyways here it is and it's a fun 
so have a good time with it.
[ Tab from: http://www.guitartabs.cc/tabs/f/finger_eleven/above_tab_ver_5.html ]
E|--8-7--------------------8-7------------------|
B|-----10----------------------10/13-13-12b-10--|
G|-9------5-5/12-12-10/9-9----------------------|
D|----------------------------------------------|
A|----------------------------------------------|
D|----------------------------------------------|

E|--8-7--------------------8-7---------------------|
B|-----10----------------------10/13-13-12b--------|
G|-9------5-5/12-12-10/9-9-----------------10/9~---|
D|-------------------------------------------------|
A|-------------------------------------------------|
D|-------------------------------------------------|