Finger Eleven - Above Chords & Tabs

 

Above Chords & Tabs

Finger Eleven Chords & Tabs

Version: 4 Type: Tab 0 ratings
1 star 2 stars 3 stars 4 stars 5 stars
comments

Above Tab

this song is tune down half step and drop d 


------------------------------------------
------------------------------------------
--7-7-7-7---------------------------------
--x-x-x-x--------------------------------- intro
--5-5-5-5---------------------------------  
------------------------------------------

------------------------------------------
-------------this sounds good 2-----------
------------5--------7---------------------
-0--2--5----x------3-5-5------------------- verse 
-0--2--3-or-3------3---5------------------- 
-0--2--------------3---5-------------------
       3x then 4 time go to the next part 
[ Tab from: http://www.guitartabs.cc/tabs/f/finger_eleven/above_tab_ver_4.html ]
-------------------------------------------
-------------------------------------------
-------------------------------------------
-------------------------------------------
-----5--8 7--3-----------------------------
-0-----------------------------------------

it goes.... we  are strong but where numb....
it's just bass but when you play with bass it's still  good

solo

-------------!------------------------------
-------------!------------------------------
----7-7-7-7--!-7-7---9-9--------------------
----x-x-x-x--!-x-x---x-x---------------------
----5-5-5-5--!-5-5-\-7-7-----------------------------
-------------!------------------------------
i'll finsh the solo some other time i don't have my guitar in front of me but i know it
Comments