Finger Eleven - Above Chords & Tabs

 

Above Chords & Tabs

Finger Eleven Chords & Tabs

Version: 2 Type: Tab 0 ratings
1 star 2 stars 3 stars 4 stars 5 stars
comments

Above Tab

Above



This is tabbed for one guitar, but i think that both
guitarists play the same things.

Tuning: Tune to dropped d and then down a half step

Intro:
-----------------------
-3-3--3-3--3-3--3-3----
-2-2--2-2--2-2--2-2----
-----------------------
-----------------------
-----------------------

Verse:
-----------------/-------------------------------
-----------------/-------------------------------
------------5--5-/-------7-7---------------------
-0--0-2-----5--5-/--3--3-7-7---------------------
-0--0-2-----3--3-/--3--3-5-5---------------------
-0--0-2----------/--3--3-----5^-(BEND)-----------
    play 3x			play 1x

Chorus:
-------------------------
-2-----8-----6-----5-----
-2-----7-----5-----4-----
-0-----5-----3-----2-----
-------------------------
-------------------------
[ Tab from: http://www.guitartabs.cc/tabs/f/finger_eleven/above_tab_ver_2.html ]
Break:
----------------------------
--4--4-4--4---6-6-6-3-------
--3--3-3--3---5-5-5-2-------
----------------------------
----------------------------
----------------------------

Solo:
----------------------------------------------------
-------18-17---15--------------------18-17--15--18--
--14-------------------15-17--15-14-----------------
------------------15--------------------------------
----------------------------------------------------
----------------------------------------------------

--------------R
--------------E
--14-15--17---P
--------------E  
--------------A
--------------T


Heavy chorus:
-----------------------------------------------
-----------------------------------------------
-----------------------------------------------
--0--0-0-0--8--8-8-8--3--3-3-3--10--10-10-10---
--0--0-0-0--8--8-8-8--3--3-3-3--10--10-10-10---
--0--0-0-0--8--8-8-8--3--3-3-3--10--10-10-10---

Comments