Finger Eleven - Above Chords & Tabs

 

Above Chords & Tabs

Finger Eleven Chords & Tabs

Version: 1 Type: Tab 0 ratings
1 star 2 stars 3 stars 4 stars 5 stars
comments

Above Tab

   
Above - Finger Eleven

Opening Riff
Eb-----------------
Bb-77-77-77-77-77--
Gb-77-77-77-77-77--
Db-77-77-77-77-77--
Ab-----------------
Db-----------------

Verse:
play 3 times 
Eb-----------------I--------------
Bb-----------------I--------------
Gb------------5----I--------------
Db-0000-2-----5----I-3333---------
Ab-0000-2----33----I-3333-5-------
Db-0000-2----------I-3333------5^-

Chorus:
Eb-----------------------
Bb-3----8----6----5--5---
Gb-2----7----5----4--4---
Db-0----5----3----2--2---
Ab-----------------------
Db-----------------------

Pre Solo:
Eb----------------------------------
Bb----------------------------------
Gb------88888888------8888/10101010-
Db-0----88888888-0----8888/10101010-
Ab-0----66666666-0----6666/-8-8-8-8-
Db-0----66666666-0----6666/-8-8-8-8-

Rhy. Solo:
Eb-------------------------------------------
Bb-------------------------------------------
Gb-77/6/7/6/7777/8888/10101010101010/11111111
Db-77/6/7/6/7777/8888/10101010101010/11111111
Ab-55/4/5/4/5555/6666/-8-8-8-8-8-8-8/-9-9-9-9
Db-55/4/5/4/5555/6666/-8-8-8-8-8-8-8/-9-9-9-9
[ Tab from: http://www.guitartabs.cc/tabs/f/finger_eleven/above_tab.html ]
Eb------------------------------------------
Bb------------------------------------------
Gb-77/6/7/6/7777/8888/10101010/11111111/9999 Db-77/6/7/6/7777/8888/10101010/11111111/9999
Ab-55/4/5/4/5555/6666/-8-8-8-8/-9-9-9-9/7777
Db-55/4/5/4/5555/6666/-8-8-8-8/-9-9-9-9/7777

Lead Solo:
Eb----13p12-----------------
Bb----------15--------------
Gb-14----------/10-10/17/15-
Db--------------------------
Ab--------------------------
Db--------------------------

Eb----13p12--------------------I
Bb----------15/18--------------I
Gb-14-------------14h15-17^-14-I
Db-----------------------------I
Ab-----------------------------I
Db-----------------------------I

Pre Interlude:
Eb---------------
Bb-3---8---6---5-
Gb-2---7---5---4-
Db-0---5---3---2-
Ab---------------
Db---------------

Interlude: play 2nd time 
Eb---------------------I------
Bb-3333/8888/6666/5555-I------
Gb-2222/7777/5555/4444-I-5555-
Db-0000/5555/3333/2222-I-5555-
Ab-0000/5555/3333/2222-I-3333-
Db-0000/5555/3333/2222-I------

Ending: Same as Verse but with this LEAD
play 2 times
Eb-------------------------I----------------
Bb-15~15~15~15/17/15/17/15-I-------14-------
Gb-------------------------I-10-10----12^12-
Db-------------------------I----------------
Ab-------------------------I----------------
Db-------------------------I----------------

Comments