Finger Eleven - Above Chords & Tabs

 

Above Chords & Tabs

Finger Eleven Chords & Tabs

Version: 1 Type: Bass Tab 0 ratings
1 star 2 stars 3 stars 4 stars 5 stars
comments

Above Bass Tab

Above (Finger Eleven): Bass Tab
Tabbed by Tommy Koszycki
Sean tunes B-E-A-D so tune this way or get a 5 string like I do
^ - hammer up or down
/ - slide up Main Riff:

D|------------------------------------------------------------------------------
A|---------------------2---2--------------------2---2---2-^-4-------------------
E|------------------------------------------------------------------------------
B|---2--2--2--2---4------------2--2--2--2---4-----------------------------------

D|------------------------------------------------------------------------------
A|---------------------2---2---2---2---------------4-----4----------------------
E|-------------------------------------0------0--0--------------2-^-3-^-2-------
B|---2--2----2--2---4-----------------------------------------------------------

Chorus: This is the note pattern. Play as many notes for each as desired or
required
[ Tab from: http://www.guitartabs.cc/tabs/f/finger_eleven/above_btab.html ]
D|------------------------------------------------------------
A|-----------/4-------/7-----------7-^-9--6--6--6-------------
E|-------------------------------------------------7----------
B|-2----------------------------------------------------------

Interlude/Solo section:

D|--------------------------------------------------------------------------------------
A|--------------------------------------------------------------------------------------
E|-------3-3-3-3-3-3-3-3-3-3-3-3-----------3-3-3-3-3-3-3-5-5-5-5-5-5--------------------
B|-2------------------------------2-----------------------------------------------------

This next part is played a few time throughout the solo:

D|--------------------------------------------------------------------------------------
A|--------------------------------------------------------------------------------------
E|--2-2-2-2-2-2-2-2-2----5-5---5----------------------0--0--0---------------------------
B|--------------------------------3-3-3-3-3-3-3-3-3-------------------------------------

Comments