Finch - Without You Here Chords & Tabs

 

Without You Here Chords & Tabs

Finch Chords & Tabs

Version: 3 Type: Tab 0 ratings
1 star 2 stars 3 stars 4 stars 5 stars
comments

Without You Here Tab

Finch - Without You Here
tabber:  drummadict (rob) freeskier20@hotmail.com

Drop D Tuning (DADGBe)

Intro 
e|-x---x---x---x--| 
B|-x---x---x---x--| 
G|-8---7---7---7--| 
D|-x---x---x---5--|  Strum occasionally
A|-6---6---5---5--| 
D|-x---x---x---x--| 

Pre-chorus
e|-x---x---x---x--| 
B|-x---x---x---x--| 
G|-8---10--12--15-| 
D|-x---x---x---x--|
A|-6---8---10--13-| 
D|-x---x---x---x--|
[ Tab from: http://www.guitartabs.cc/tabs/f/finch/without_you_here_tab_ver_3.html ]
Chorus
e|-------------------------------| 
B|-------------------------------| 
G|-------------------------------| 
D|-5--1--8--3-----5-xx-1--8--3---|
A|-5--1--8--3-----5-xx-1--8-3---| 
D|-5--1--8--3-----5-xx-1-8--3---|

Outro
e|---------------------| 
B|---------------------| 
G|---------------------| 
D|-1-------8--1--5--1--| 
A|-1-------8--1--5--1--| 
D|-1-------8--1--5--1--|
  PM . . .

It's not hard to play but it's an awesome song!  Corrections, comments,
complaints and other good finch and other good punk tabs, are all welcome!
Later
Rob
Comments