Finch - Without You Here Chords & Tabs

 

Without You Here Chords & Tabs

Finch Chords & Tabs

Version: 1 Type: Tab 1 rating
1 star 2 stars 3 stars 4 stars 5 stars
comments

Without You Here Tab

Drop D Tuning (DADGBe)

for this tuning just tune the 6 string down untill its the same tune as the 4th
Intro 
e|-x---x---x---x--| 
B|-x---x---x---x--| 
G|-8---7---7---7--| 
D|-x---x---x---5--|  
A|-6---6---5---5--| 
D|-x---x---x---x--| 

Pre-chorus
e|-x---x---x---x--| 
B|-x---x---x---x--| 
G|-8---10--12--15-| 
D|-x---x---x---x--|
A|-6---8---10--13-| 
D|-x---x---x---x--|
[ Tab from: http://www.guitartabs.cc/tabs/f/finch/without_you_here_tab.html ]
Chorus
e|-------------------------------| 
B|-------------------------------| 
G|-------------------------------| 
D|-5--1--8--3-----5-xx-1--8--3---|
A|-5--1--8--3-----5-xx-1--8—-3---| 
D|-5--1--8--3-----5-xx-1—-8--3---|

Outro
e|---------------------| 
B|---------------------| 
G|---------------------| 
D|-1-------8--1--5--1--| 
A|-1-------8--1--5--1--| 
D|-1-------8--1--5--1--|

any questions, comments just e-mail me at cokroach_hazzard@hotmail.com  
Comments