Finch - What It Is To Burn Chords & Tabs

 

What It Is To Burn Chords & Tabs

Finch Chords & Tabs

Version: 9 Type: Tab 0 ratings
1 star 2 stars 3 stars 4 stars 5 stars
comments

What It Is To Burn Tab

   
------------------------------------------------
1. New Beginings
------------------------------------------------
Tuning: Down One Whole Step (D,G,C,F,A,D)

Intro:

     Asus2
1:|--------------------------|
2:|--------2-----2-----2-----|
3:|--------------------------|
4:|-----4-----4-----4--------|  6x
5:|--2--------------------1--|
6:|--------------------------|

Then:

     Asus2             G#m
1:|--------------------------2--1--|
2:|--------2-----2-----------------|
3:|--------------------------------|
4:|-----4-----4-----4-----3--------|  Guitar 1
5:|--2-----------------1-----------|
6:|--------------------------------|

     A5                G#5
1:|--------------------------------|
2:|--------------------------------|
3:|--4--4---4---4--4---3--3--3--3--|
4:|--4--4---4---4--4---3--3--3--3--|  Guitar 2
5:|--2--2---2---2--2---1--1--1--1--|
6:|--------------------------------|

Verse:

     A5
1:|---------------------------------|
2:|---------------------------------|
3:|--4-4-4-4-4-4-4-4-4-4-4-4-4-4-4--|
4:|--4-4-4-4-4-4-4-4-4-4-4-4-4-4-4--|
5:|--2-2-2-2-2-2-2-2-2-2-2-2-2-2-2--|
6:|---------------------------------|
pm   . . . . . . . . . . . . . . .

     G#5
1:|---------------------------------|
2:|---------------------------------|
3:|--3-3-3-3-3-3-3-3-3-3-3-3-3-3-3--|
4:|--3-3-3-3-3-3-3-3-3-3-3-3-3-3-3--|
5:|--1-1-1-1-1-1-1-1-1-1-1-1-1-1-1--|
6:|---------------------------------|
pm   . . . . . . . . . . . . . . .

End of the verse:

1:|--2-2-2-2-2-2-2-2-2-2-2--|
2:|--2-2-2-2-2-2-2-2-2-2-2--|
3:|--3-3-3-3-3-3-3-3-3-3-3--|
4:|-------------------------|
5:|-------------------------|
6:|-------------------------|

Chorus:

     Asus2             G#m
1:|--------------------------2-2-1-1-1-1--|
2:|--------2-----2-----------2-2-2-2-2-2--|
3:|---------------------------------------|
4:|-----4-----4-----4-----3---------------|  Guitar 1
5:|--2-----------------1------------------|
6:|---------------------------------------|

     A5                G#5
1:|--------------------------------|
2:|--------------------------------|
3:|--4--4---4---4--4---3--3--3--3--|
4:|--4--4---4---4--4---3--3--3--3--|  Guitar 2
5:|--2--2---2---2--2---1--1--1--1--|
6:|--------------------------------|

Bridge:

     F#5              A5
1:|--------------------------------------|----------------------------------|
2:|--------------------------------------|----------------------------------|
3:|-------------------4--4--4--4-4--4--4-|-3-3-3-3-3-3-3-3-3-3-3-3-3-3-3-3--|
4:|--6--6--6-6--6--6--4--4--4--4-4--4--4-|-3-3-3-3-3-3-3-3-3-3-3-3-3-3-3-3--|  3x
5:|--6--6--6-6--6--6--2--2--2--2-2--2--2-|-1-1-1-1-1-1-1-1-1-1-1-1-1-1-1-1--|
6:|--4--4--4-4--4--4---------------------|----------------------------------|
pm                                         . . . . . . . . . . . . . . . .

     F#5              A5
2:|---------------------------------------|
2:|---------------------------------------|
3:|-------------------4--4--4--4-4--4--4--|
4:|--6--6--6-6--6--6--4--4--4--4-4--4--4--|
5:|--6--6--6-6--6--6--2--2--2--2-2--2--2--|
6:|--4--4--4-4--4--4----------------------|

     G#5
1:|---------------------------------|
2:|---------------------------------|
3:|--3-3-3-3-3-3-3-3-3-3-3-3-3-3-3--|
4:|--3-3-3-3-3-3-3-3-3-3-3-3-3-3-3--|  2x
5:|--1-1-1-1-1-1-1-1-1-1-1-1-1-1-1--|
6:|---------------------------------|
pm   . . . . . . . . . . . . . . .

1:|---------------------------|
2:|--2-2-2-2-2-2-2-2-2-2-2-2--|
3:|--3-3-3-3-3-3-3-3-3-3-3-3--|
4:|---------------------------|
5:|---------------------------|
6:|---------------------------|

Chorus ver.2:

     Asus2       G#5             Asus2       G#5
1:|---------------------------|---------------------------|
2:|--2------------------------|--2------------------------|
3:|--4-----------3------------|--4------------------------|
4:|--4-----------3------------|--4------------------------|
5:|--------------1------------|--------------1------------|
6:|---------------------------|---------------------------|

     Asus2       G#5             Asus2       G#5
1:|---------------------------|-------------------2-2-1-1-1-1--|
2:|--2------------------------|--2---2------------2-2-2-2-2-2--|
3:|--4-----------3------------|--4-----------3-----------------|
4:|--4-----------3------------|--4-----------3-----------------|
5:|--------------1------------|--------------1-----------------|
6:|---------------------------|--------------------------------|

Ending:

     Asus2
1:|------------------(14)--|
2:|--------2-----2---------|
3:|------------------------|
4:|-----4-----4------------|
5:|--2---------------------|
6:|------------------------|
                      AH.


--------------------------------------------
2. Letters To You
--------------------------------------------

All Guitars Tuned Down
Half A Step With Dropped D


Intro
Gtr 1 (Dist)
eb|-0-0-0-0-0-0-0-0-0-0-0-0-0-0-0-------------------------------------------------|
Bb|-3-3-3-3-3-3-3-3-3-3-3-3-3-3-3-------------------------------------------------|
Gb|-2-2-2-2-2-2-2-2-2-2-2-2-2-2-2-------------------------------------------------|
Db|-------------------------------------------------------------------------------|
Ab|-------------------------------------------------------------------------------|
Db|-------------------------------------------------------------------------------|

Verse
Gtr 1
eb|---------------------------------------------------------------------------------------------|
Bb|---------------------------------------------------------------------------------------------|
Gb|--7--7--7--7-------------7--7--------7--7--------7-7---7--7-/11----------7--------7--------7-|
Db|--x--x--x--x------4---4--4--4--5--5--5--5--7--7--7-7---x--x-/-x----4--4--4--5--5--5--7--7--7-|
Ab|--5--5--5--5------4---4--4--4--5--5--5--5--7--7--7-7---5--5-/-9----4--4--4--5--5--5--7--7--7-|
Db|------------------4---4--------5--5--------7--7--------------------4--4-----5--5-----7--7----|

Gtr 2 (Dist)
   p.m--------------------------------------------------------------------------------|
eb|-----------------------------------------------------------------------------------|
Bb|-----------------------------------------------------------------------------------|
Gb|-----------------------------------------------------------------------------------|
Db|----------------------------------------------------2-2-2-2-2-2-2-2----------------|
Ab|------------------4-4-4-4-4-4-4-4--5-5-5-5-5-5-5-5--0-0-0-0-0-0-0-0----------------|
Db|-0-0-0-0-0-0-0-0--4-4-4-4-4-4-4-4--5-5-5-5-5-5-5-5---------------------------------|

Pre-Chorus
Gtr 1
eb|-----------------------------------------------------------------------------------------------|
Bb|-----------------------------------------------------------------------------------------------|
Gb|--------------------------------------------------------11-11-11-11-11-11-----12-12-11-11-11---|
Db|-----------------------------------------------------0---x--x--x--x--x--x--0---x--x--x--x--x---|
Ab|-----------------------------------------------------0---9--9--9--9--9--9--0--10-10--9--9--9---|
Db|-----------------------------------------------------0---------------------0-------------------|

Gtr 2
eb|---------------------------------------------------------------------------------|
Bb|-------------------------------------------------------------3------3------3-----|
Gb|-------------------------------------------------------------2------2------2-----|
Db|--4-4--4-4--4-4--4-4--4-4--5-5--5-5--5-5--5-5--5-5---0--0----0------0------0-----|
Ab|--4-4--4-4--4-4--4-4--4-4--5-5--5-5--5-5--5-5--5-5---0--0----0------0------0-----|
Db|--4-4--4-4--4-4--4-4--4-4--5-5--5-5--5-5--5-5--5-5---0--0----0------0------0-----|

Chorus
Gtrs 1&2
eb|---------------------------------------------0--0----------------------------|
Bb|---------------------------------------------3--3----------------------------|
Gb|---------------------------------------------2--2----------6---6-------------|
Db|--9--9-9--9--9-9---5--5-5--7--7-7----0--0-0--0--0---4--4-4-4---4-------------|
Ab|--9--9-9--9--9-9---5--5-5--5--5-5----0--0-0---------4--4-4-4---4-------------|
Db|--9--9-9--9--9-9---5--5-5--5--5-5----0--0-0---0-0---4--4-4-4---4-------------|

Gtr 1
eb|-0-0-0-0-0-0-0-0-0-0-0-0-0-0-0---------------------------------------------------|
Bb|-3-3-3-3-3-3-3-3-3-3-3-3-3-3-3---------------------------------------------------|
Gb|-2-2-2-2-2-2-2-2-2-2-2-2-2-2-2---------------------------------------------------|
Db|---------------------------------------------------------------------------------|
Ab|---------------------------------------------------------------------------------|
Db|---------------------------------------------------------------------------------|

Gtr 1
eb|---------------------------------------------------------------------------------------------|
Bb|---------------------------------------------------------------------------------------------|
Gb|--7--7--7--7-------------7--7--------7--7--------7-7---7--7-/11----------7--------7--------7-|
Db|--x--x--x--x------4---4--4--4--5--5--5--5--7--7--7-7---x--x-/-x----4--4--4--5--5--5--7--7--7-|
Ab|--5--5--5--5------4---4--4--4--5--5--5--5--7--7--7-7---5--5-/-9----4--4--4--5--5--5--7--7--7-|
Db|------------------4---4--------5--5--------7--7--------------------4--4-----5--5-----7--7----|

Gtr 2
Harm-----|
   p.m-----------------------------------------------------------------------------------|
eb|--------------------------------------------------------------------------------------|
Bb|-<7>----------------------------------------------------------------------------------|
Gb|----<7>-------------------------------------------------------------------------------|
Db|-------------------------------------------------------2-2-2-2-2-2-2-2----------------|
Ab|---------------------4-4-4-4-4-4-4-4--5-5-5-5-5-5-5-5--0-0-0-0-0-0-0-0----------------|
Db|----0-0-0-0-0-0-0-0--4-4-4-4-4-4-4-4--5-5-5-5-5-5-5-5---------------------------------|

Gtr 1
eb|-----------------------------------------------------------------------------------------------|
Bb|-----------------------------------------------------------------------------------------------|
Gb|--------------------------------------------------------11-11-11-11-11-11-----12-12-11-11-11---|
Db|-----------------------------------------------------0---x--x--x--x--x--x--0---x--x--x--x--x---|
Ab|-----------------------------------------------------0---9--9--9--9--9--9--0--10-10--9--9--9---|
Db|-----------------------------------------------------0---------------------0-------------------|

Gtr 2
eb|---------------------------------------------------------------------------------|
Bb|-------------------------------------------------------------3------3------3-----|
Gb|-------------------------------------------------------------2------2------2-----|
Db|--4-4--4-4--4-4--4-4--4-4--5-5--5-5--5-5--5-5--5-5---0--0----0------0------0-----|
Ab|--4-4--4-4--4-4--4-4--4-4--5-5--5-5--5-5--5-5--5-5---0--0----0------0------0-----|
Db|--4-4--4-4--4-4--4-4--4-4--5-5--5-5--5-5--5-5--5-5---0--0----0------0------0-----|

Gtrs 1&2
eb|---------------------------------------------0--0----------------------------|
Bb|---------------------------------------------3--3----------------------------|
Gb|---------------------------------------------2--2----------6---6-------------|
Db|--9--9-9--9--9-9---5--5-5--7--7-7----0--0-0--0--0---4--4-4-4---4-------------|
Ab|--9--9-9--9--9-9---5--5-5--5--5-5----0--0-0---------4--4-4-4---4-------------|
Db|--9--9-9--9--9-9---5--5-5--5--5-5----0--0-0---0-0---4--4-4-4---4-------------|

eb|---------------------------------------------------------------------------------|
Bb|---------------------------------------------------------------------------------|
Gb|---7--7---7--7---7--7---7--7---7--7---7--7---7--7---7--7---7---------------------|
Db|---x--x---x--x---x--x---x--x---x--x---x--x---x--x---x--x---x---------------------|
Ab|---5--5---5--5---5--5---5--5---5--5---5--5---5--5---5--5---5---------------------|
Db|---------------------------------------------------------------------------------|

eb|---------------------------------------------------------------------------------|
Bb|---------------------------------------------------------------------------------|
Gb|---7-\-6-/--7-/--9-\--7-\--6-----------------------------------------------------|
Db|---x---x----x----x----x----x-----------------------------------------------------|
Ab|---5-\-4-/--5-/--7-\--5-\--4-----------------------------------------------------|
Db|---------------------------------------------------------------------------------|

eb|---------------------------------------------------------------------------------|
Bb|---------------------------------------------------------------------------------|
Gb|---7--7---7--7---7--7---7--7---7--7---7--7---7--7---7--7---7---------------------|
Db|---x--x---x--x---x--x---x--x---x--x---x--x---x--x---x--x---x---------------------|
Ab|---5--5---5--5---5--5---5--5---5--5---5--5---5--5---5--5---5---------------------|
Db|---------------------------------------------------------------------------------|

eb|---------------------------------------------------------------------------------|
Bb|---------------------------------------------------------------------------------|
Gb|--7-7-7-7-7-7-7-7-11-11-11-11-11-11-11-11--12-12-12-12-12-12-12-12-12-12-12-12---|
Db|--x-x-x-x-x-x-x-x--x--x--x--x--x--x--x--x---x--x--x--x--x--x--x--x--x--x--x--x---|
Ab|--5-5-5-5-5-5-5-5--9--9--9--9--9--9--9--9--10-10-10-10-10-10-10-10-10-10-10-10---|
Db|---------------------------------------------------------------------------------|

eb|---------------------------------------------------------------------------------|
Bb|---------------------------------------------------------------------------------|
Gb|---7-\-6-/--7-/--9-\--7-\--6-----------------------------------------------------|
Db|---x---x----x----x----x----x-----------------------------------------------------|
Ab|---5-\-4-/--5-/--7-\--5-\--4-----------------------------------------------------|
Db|---------------------------------------------------------------------------------|

Gtr 1
 w/Phaser--------------------------------------------------------------------------------|
eb|---------------------------------------------0--0-------------------x-x-x-x-----------|
Bb|---------------------------------------------3--3-------------------x-x-x-x-----------|
Gb|---------------------------------------------2--2----------6---6----x-x-x-x-----------|
Db|--9--9-9--9--9-9---5--5-5--7--7-7----0--0-0--0--0---4--4-4-4---4----x-x-x-x-----------|
Ab|--9--9-9--9--9-9---5--5-5--5--5-5----0--0-0---------4--4-4-4---4----x-x-x-x-----------|
Db|--9--9-9--9--9-9---5--5-5--5--5-5----0--0-0---0-0---4--4-4-4---4----x-x-x-x--22\------|

Gtr 2
eb|--------------------------------------------------------------------x-x-x-x----------|
Bb|--------------------------------------------------------------------x-x-x-x----------|
Gb|--------------------------------------------------------------------x-x-x-x----------|
Db|--------------------------------------------------------------------x-x-x-x----------|
Ab|--------------------------------------------------------------------x-x-x-x----------|
Db|--------------------------------------------------------------------x-x-x-x--22\-----|

Gtrs 1&2
eb|---------------------------------------------0--0----------------------------|
Bb|---------------------------------------------3--3----------------------------|
Gb|---------------------------------------------2--2----------6---6-------------|
Db|--9--9-9--9--9-9---5--5-5--7--7-7----0--0-0--0--0---4--4-4-4---4-------------|
Ab|--9--9-9--9--9-9---5--5-5--5--5-5----0--0-0---------4--4-4-4---4-------------|
Db|--9--9-9--9--9-9---5--5-5--5--5-5----0--0-0---0-0---4--4-4-4---4-------------|

Gtr 1
eb|-0-0-0-0-0-0-0-0-0-0-0-0-0-0-0-0-0-0-0-0-0-0-0-0-0-0-0--0------------------------|
Bb|-3-3-3-3-3-3-3-3-3-3-3-3-3-3-3-3-3-3-3-3-3-3-3-3-3-3-3--3------------------------|
Gb|-2-2-2-2-2-2-2-2-2-2-2-2-2-2-2-2-2-2-2-2-2-2-2-2-2-2-2--2------------------------|
Db|---------------------------------------------------------------------------------|
Ab|---------------------------------------------------------------------------------|
Db|---------------------------------------------------------------------------------|

Gtr 2
eb|---------------------------------------------------------------------------------|
Bb|---------------------------------------------------------------------------------|
Gb|--------------------------------------------------------7------------------------|
Db|---------------------------------0----------------------7------------------------|
Ab|---------------------------------0----------------------5------------------------|
Db|---------------------------------0-----------------------------------------------|


----------------------------------------
3. Post Script
----------------------------------------

Tuning: Low to High (Db Ab Db Gb Bb Eb)

Intro 1: Guitar 2 (Distortion Harmonics)
Eb|--------------------------------------------------------------------|
Bb|--------------------------------------------------------------------|
Gb|--------------------------------------------------------------------|
Db|----------5-5----------5-5-----------------5-5----------5-5---------|
Ab|------4-4----------4-4---------4-4-----4-4----------4-4---------4-4-|
Db|--5-5----------5-5---------5-5-----5-5----------5-5---------5-5-----|

Intro 2: Guitar 1 (Distortion)
Eb|--------------------------------------------------------------------|
Bb|--------------------------------------------------------------------|
Gb|--7--7-7-7-7-7--7--7-7-7-7-7--14--14-14-14-14-14--14-14-14-14-14-14-|
Db|--x--x-x-x-x-x--x--x-x-x-x-x--x---x--x--x--x--x---x--x--x--x--x--x--|
Ab|--5--5-5-5-5-5--5--5-5-5-5-5--12--12-12-12-12-12--12-12-12-12-12-12-|
Db|--------------------------------------------------------------------|

Eb|-------------------------------------------------------------------------|
Bb|-------------------------------------------------------------------------|
Gb|--14--14-14-14-14-14--14-14-14-14-14-14-14--14-14-14-14-14--9--9-9-9-9-9-|
Db|--x---x--x--x--x--x---x--x--x--x--x--x--x---x--x--x--x--x---x--x-x-x-x-x-|
Ab|--12--12-12-12-12-12--12-12-12-12-12-12-12--12-12-12-12-12--7--7-7-7-7-7-|
Db|-------------------------------------------------------------------------|

Verse: Guitar 1
Eb|---------------------------------------------------------------------|
Bb|---------------------------------------------------------------------|
Gb|---------------------------------------------------------------------|
Db|--5--5-5-5---0--0-0-0---9--9-9-9---7--7-7-7--------------------------|
Ab|--5--5-5-5---0--0-0-0---9--9-9-9---7--7-7-7--------------------------|
Db|--5--5-5-5---0--0-0-0---9--9-9-9---7--7-7-7--x~~~~~~~~~~~~~~~~~~~~~~-|
(Let Ring/Pick Scrape)

Verse: Guitar 2 (After Guitar 1 Plays 1st Time)
Eb|--------------------------------------------------------------------|
Bb|--------------------------------------------------------------------|
Gb|--7-7-7-7-7-7-7-7-7-7-7-7-7-7-7-7-7-7-7-7-7-7-7-7-7-7-7-7-7-7-7-7---|
Db|--------------0-0-0-0-0-0-0-0-0-0-------------0-0-0-0-0-0-0-0-0-0---|
Ab|--------------------------------------------------------------------|
Db|--------------------------------------------------------------------|

Chorus: Guitar 1
Eb|---------------------------------------------------------------------------|
Bb|---------------------------------------------------------------------------|
Gb|------7-----7----------7-----7----------7-----7----------------------------|
Db|--4-5---4-5---5-0--4-5---4-5---5-0--4-5---4-5---5-0--0-0-4-4-5-5-0-0-4-4-5-|
Ab|-----------------------------------------------------0-0-4-4-5-5-0-0-4-4-5-|
Db|-----------------------------------------------------0-0-4-4-5-5-0-0-4-4-5-|

Chorus: Guitar 2
Eb|-------------------------------------------------------------------|
Bb|-------------------------------------------------------------------|
Gb|-------------------------------------------------------------------|
Db|--9-9-9-9-9-9-9-9-9-9-9-9-9-9-9-9--0-0-0-0-0-0-0-0-0-0-0-0-0-0-0-0-|
Ab|--9-9-9-9-9-9-9-9-9-9-9-9-9-9-9-9--0-0-0-0-0-0-0-0-0-0-0-0-0-0-0-0-|
Db|--9-9-9-9-9-9-9-9-9-9-9-9-9-9-9-9--0-0-0-0-0-0-0-0-0-0-0-0-0-0-0-0-|

Eb|--------------------------------------------------------------------|
Bb|--------------------------------------------------------------------|
Gb|--------------------------------------------------------------------|
Db|--9-9-9-9-9-9-9-9-9-9-9-9-9-9-9-9--0-0-4-4-5-5-0-0-4-4-5-5--0-0-4-4-|
Ab|--9-9-9-9-9-9-9-9-9-9-9-9-9-9-9-9--0-0-4-4-5-5-0-0-4-4-5-5--0-0-4-4-|
Db|--9-9-9-9-9-9-9-9-9-9-9-9-9-9-9-9--0-0-4-4-5-5-0-0-4-4-5-5--0-0-4-4-|

Chorus: Outro 2nd Time - Guitar 1 & 2
Eb|---------------------------------------------------------------------|
Bb|---------------------------------------------------------------------|
Gb|---------------------------------------------------------------------|
Db|--0-0-4-4-5-5-0-0-4-4-5-5--0-0-4-4--0-0-4-4-5-5-0-0-4-4-5-5--0-0-4-4-|
Ab|--0-0-4-4-5-5-0-0-4-4-5-5--0-0-4-4--0-0-4-4-5-5-0-0-4-4-5-5--0-0-4-4-|
Db|--0-0-4-4-5-5-0-0-4-4-5-5--0-0-4-4--0-0-4-4-5-5-0-0-4-4-5-5--0-0-4-4-|

(Guitar 1 only)
Eb|--------------------------------------------------------------------|
Bb|--------------------------------------------------------------------|
Gb|--------------------------------------------------------------------|
Db|--0-----------------------------------------------------------------|
Ab|--0-----------------------------------------------------------------|
Db|--0-----------------------------------------------------------------|

Interlude: Guitar 2 (Clean)
Eb|--------------------------------------------------------------------|
Bb|--------------------------------------------------------------------|
Gb|--7-----7-----7---0-----0-----0---7-----7-----7---0-----0-----0-----|
Db|4---4-4---4-4---0---0-0---0-0---4---4-4---4-4---0---0-0---0-0-------|
Ab|--------------------------------------------------------------------|
Db|--------------------------------------------------------------------|

Eb|--------------------------------------------------------------------|
Bb|--------------------------------------------------------------------|
Gb|----------7------7---------7-----7---------7-----7---------7-----7--|
Db|----5----------5-----7---------7-----7---------7-----7---------7----|
Ab|-------------------5---5-5---5--------------------------------------|
Db|--5---5-5----5---------------------0---0-0---0-----0---0-0---0------|

Ending: Guitar 1 & 2 (Distortion)
Eb|--------------------------------------------------------------------|
Bb|--------------------------------------------------------------------|
Gb|--------------------------------------------------------------------|
Db|--0-0-0-0-0-0-0-0-0-0-0-0-0-0-0-0-0-0-0-0-0-0-0-0-0-0-0-0-0-0-0-0-0-|
Ab|--0-0-0-0-0-0-0-0-0-0-0-0-0-0-0-0-0-0-0-0-0-0-0-0-0-0-0-0-0-0-0-0-0-|
Db|--0-0-0-0-0-0-0-0-0-0-0-0-0-0-0-0-0-0-0-0-0-0-0-0-0-0-0-0-0-0-0-0-0-|

Eb|--------------------------------------------------------------------|
Bb|--------------------------------------------------------------------|
Gb|--------------------------------------------------------------------|
Db|--4-4-4--4----5-5-5--4----4-4-4--4----5-5-5--4----0-----------------|
Ab|--4-4-4----5--5-5-5----5--4-4-4----5--5-5-5----5--0-----------------|
Db|--4-4-4-------5-5-5-------4-4-4-------5-5-5-------0-----------------|


-----------------------------------------
4. Grey Matter
-----------------------------------------

Tuning:Standard Tuning

e|-----2-----2-----2---------------------------------------------------|
B|------4-----4--------------------------------------------------------|
G|-3h4----3h4---3h4----------------------------------------------------|
D|---------------------------------------------------------------------|
A|---------------------------------------------------------------------|
E|---------------------------------------------------------------------|

e|---------------------------------------------------------------------|
B|-----------0-0-------------------------------------------------------|
G|---4---4----3--------------------------------------------------------|
D|--2-2-2-2-1---1------------------------------------------------------|
A|-4---4---2-----2-----------------------------------------------------|
E|---------------------------------------------------------------------|

e|---------------------------------------------------------------------|
B|---------------------------------------------------------------------|
G|-xxxxxxx-444—-44444444--444444444444---------------------------------|
D|-xxxxxxx-222—-22222222--111111111111---------------------------------|
A|-xxxxxxx-444—-44444444--222222222222---------------------------------|
E|---------------------------------------------------------------------|

e|----------------------------------------------------------------------|
B|----------------------------------------------------------------------|
G|----------------------------------------------------------------------|
D|-6666666666666666-2222-9999999999999999-6666666666666666-8888-9999999-|
A|-6666666666666666-2222-9999999999999999-6666666666666666-8888-9999999-|
E|-4444444444444444-0000-7777777777777777-4444444444444444-6666-7777777-|

-----------------------------------------------------------------------|
-----------------------------------------------------------------------|
-----------------------------------------------------------------------|
999999999--------------------------------------------------------------|
999999999--------------------------------------------------------------|
777777777--------------------------------------------------------------|

e|---------------------------------------------------------------------|
B|---------------------------------------------------------------------|
G|-8888888888888888-10101010-11111111111111111111111111111111----------|
D|-xxxxxxxxxxxxxxxx-x-x-x-x—-x-x-x-x-x-x-x-x-x-x-x-x-x-x-x-x-----------|
A|-6666666666666666-8-8-8-8--9-9-9-9-9-9-9-9-9-9-9-9-9-9-9-9-----------|
E|---------------------------------------------------------------------|

e|---------------------------------------------------------------------|
B|---------------------------------------------------------------------|
G|------x-33333h4------------------------------------------------------|
D|-444-x-----------2-22222-222222--------------------------------------|
A|-444-x-----------2-22222-222222--------------------------------------|
E|-222-x-----------0-00000-000000--------------------------------------|

e|---------------------------------------------------------------------|
B|---------------------------------------------------------------------|
G|------------------88888888-------------------------------------------|
D|-9999999999999999-88888888-44444444----------------------------------|
A|-9999999999999999-66666666-44444444----------------------------------|
E|-7777777777777777----------22222222----------------------------------|


-----------------------------------------
5.Perfection Through Silence
-----------------------------------------


Standard C# Tuning

Intro:
Guitar 1
d#-------------------------------------------------------------   -4--|
A#-5-4-0-5-4-0-5-4-5-4-0-5-4-0-5-4-5-4-0-5-4-0-5-4-5-4-0-5-4-0- X2--7-|
F#-------------------------------------------------------------   ----|
C#-------------------------------------------------------------   ----|
G#-------------------------------------------------------------   ----|
C#-------------------------------------------------------------   ----|

d#-------------4---------------4---------------4---------------4-------|
A#-5-4-0-5-4-0---7-5-4-0-5-4-0---7-5-4-0-5-4-0---7-5-4-0-5-4-0---7---5-|
F#---------------------------------------------------------------------|
C#---------------------------------------------------------------------|
G#---------------------------------------------------------------------|
C#---------------------------------------------------------------------|

Guitar 2
d#---------------------------------------------------------------------|
A#---------------------------------------------------------------------|
F#-99999999999999999999999999999999-66666666666666666666666666666666---|
C#-99999999999999999999999999999999-66666666666666666666666666666666---|
G#-77777777777777777777777777777777-44444444444444444444444444444444---|
C#---------------------------------------------------------------------|

d#-------------------------------------------------------------------|
a#-------------------------------------------------------------------|
F#-------------------------------------------------------------------|
C#-77777777777777777777777777777777-99999999999999999999999999999999-|
G#-77777777777777777777777777777777-99999999999999999999999999999999-|
C#-77777777777777777777777777777777-99999999999999999999999999999999-|

Pre chorus:
d#------------------------------------------------------|
A#------------------------------------------------------|
F#-9-xx9-xx9-xx-11xx6-xx6-xx----------------------------|
C#-x-xxx-xxx-xx-x-xxx-xxx-xx-5-xx5-xx5-9999999999999999-|
G#-7-xx7-xx7-xx-9-xx4-xx4-xx-x-xxx-xxx-9999999999999999-|
C#---------------------------5-xx5-xx5-9999999999999999-|


d#---------------------------------------------------------------------|
A#---------------------------------------------------------------------|
F#-----------------------------------6666666666666666-9999999999999999-|
C#-9999999999999999-6666666666666666-6666666666666666-9999999999999999-|
G#-9999999999999999-6666666666666666-4444444444444444-7777777777777777-|
C#-9999999999999999-6666666666666666-----------------------------------|

Chorus:
d#-------------------------------------------------------------------|
A#-------------------------------------------------------------------|
F#-99999999999999999999999999999999-66666666666666666666666666666666-|
C#-99999999999999999999999999999999-66666666666666666666666666666666-|
G#-77777777777777777777777777777777-44444444444444444444444444444444-|
C#-------------------------------------------------------------------|

d#-------------------------------------------------------------------|
A#-------------------------------------------------------------------|
F#-------------------------------------------------------------------|
C#-66666666666666666666666666666666-77777777777777777777777777777777-|
G#-66666666666666666666666666666666-77777777777777777777777777777777-|
C#-66666666666666666666666666666666-77777777777777777777777777777777-|


-----------------------------------------
6.Awake
-----------------------------------------


Standard Tuning

Intro(Guitar1): repeat8x
e-18----------------------|
b--18--18----18----18-----|
g----18--18----18----18---|
d----------18----18----18-|
a-------------------------|
e-------------------------|
(on the 8th time this is played the riff changes just a tiny bit.
after you play the riff written above, pick 18 on the high e
string and let it ring out.)

Intro(Guitar2): played after Guitar1 plays 4x. repeat 4x
e---------------------------------------|
b---------------------------------------|
g---------------------------------------|
D-8-11-11-11-11-11-11-11-11-11-11-11-11-|
A-8-11-11-11-11-11-11-11-11-11-11-11-11-|
e-6--9--9--9--9--9--9--9--9--9--9--9--9-|

Verse(Guitar1):
e---14--------14----------14-----------18-----------|
b-14----14--14----------14----14---18----18----18---|
g-----13--------13--15------13-------18----------18-|
d---------------------------------------------------|
a---------------------------------------------------|
e---------------------------------------------------|

Verse(Guitar2): repeat4x, comes in while Guitar1 plays
e---------------------------------------|
b---------------------------------------|
g---------------------------------------|
D-8-11-11-11-11-11-11-11-11-11-11-11-11-|
A-8-11-11-11-11-11-11-11-11-11-11-11-11-|
e-6--9--9--9--9--9--9--9--9--9--9--9--9-|

Verse(Guitar3): repeat 4x, comes in when Guitar2 starts
e-----------|
b--2-2--5---|
g-3------6--|
d---------7-|
a-----------|
e-----------|

Chorus(Guitar1): repeat4x
e-------------------------------------------------------------|
b-------------------------------------------------------------|
g-------------------------------------------------------------|
D-3-3-3-3-3-3-4-4-4-4-4-4-11-11-11-11-11-11-11-11-11-11-11-11-|
A-3-3-3-3-3-3-4-4-4-4-4-4-11-11-11-11-11-11-11-11-11-11-11-11-|
e-1-1-1-1-1-1-2-2-2-2-2-2--9--9--9--9--9--9--9--9--9--9--9--9-|
(while this is going on, there's another guitar doing something
but it's too confusing to hear. repeat all that's written above
once more.)

Guitar1:3x
e--------|
b--------|
g--------|
D-3-4-11-|
A-3-4-11-|
e-1-2--9-|

Guitar2:played while Guitar1 plays, repeat2x
e--------------|
b--------------|
g--8--8--8--8--|
d-6--6--6--6---|
a---4--4--4--4-|
e--------------|
[ Tab from: http://www.guitartabs.cc/tabs/f/finch/what_it_is_to_burn_tab_ver_9.html ]
Guitar2:i have no clue how many times this riff is repeated
but it's quite a lot, just listen to the song.
e------|
b------|
g-3-1--|
d----4-|(ring out)
a------|
e------|

Guitar1:playes right after Guitar2
e------|
b------|
g------|
d-3-1--|
a----4-|
e------|

Guitar3: if you listen, you can hear this little thing going
on in the backround, it's repeated several times. to get this
effect, i think they're using a flanger. if you don't have
one, just use a pen or something.
e-1---(gradually slide)---18-|
b----------------------------|
g----------------------------|
d----------------------------|
a----------------------------|
e----------------------------|

Guitar4: this thing is also going on in the backround
e-----------|
b-----------|
g-5-------8-|
d-----------|
a-----------|
e-----------|

Guitar1:repeat4x
e-------------------------------------------------------------|
b-------------------------------------------------------------|
g-------------------------------------------------------------|
D-3-3-3-3-3-3-4-4-4-4-4-4-11-11-11-11-11-11-11-11-11-11-11-11-|
A-3-3-3-3-3-3-4-4-4-4-4-4-11-11-11-11-11-11-11-11-11-11-11-11-|
e-1-1-1-1-1-1-2-2-2-2-2-2--9--9--9--9--9--9--9--9--9--9--9--9-|

Guitar1:repeat4x
e--------|
b--------|
g--------|
D-3-4-11-|
A-3-4-11-|
e-1-2--9-|

Guitar2:repeat4x or i dunno
e--------------|
b--------------|
g--8--8--8--8--|
d-6--6--6--6---|
a---4--4--4--4-|
e--------------|


-------------------------------------------
7. Without You Here
-------------------------------------------

Drop D Tuning (DADGBe)

Intro
e|-x---x---x---x--|
B|-x---x---x---x--|
G|-8---7---7---7--|
D|-x---x---x---5--|  Strum occasionally
A|-6---6---5---5--|
D|-x---x---x---x--|

Pre-chorus
e|-x---x---x---x--|
B|-x---x---x---x--|
G|-8---10--12--15-|
D|-x---x---x---x--|
A|-6---8---10--13-|
D|-x---x---x---x--|

Chorus
e|-------------------------------|
B|-------------------------------|
G|-------------------------------|
D|-5--1--8--3-----5-xx-1--8--3---|
A|-5--1--8--3-----5-xx-1--8—-3---|
D|-5--1--8--3-----5-xx-1—-8--3---|

Outro
e|---------------------|
B|---------------------|
G|---------------------|
D|-1-------8--1--5--1--|
A|-1-------8--1--5--1--|
D|-1-------8--1--5--1--|
  PM . . .


---------------------------------------------
8. Stay With Me
---------------------------------------------


Tuning: drop the E string to D. Tune guitar down ½ step

Intro(after drums-use distortion) Riff 1
eb-------------------------------------------------------------|
Bb-------------------------------------------------------------|
Gb-----------------6--6-6-6-6-8-6---------------6--6-6-6-6-8-6-|
db-----9-9--9-9----8--8-8-8-8-8-8—--9-9--9-9----8--8-8-8-8-8-8-|
Ab-----9-9--9-9---------------------9-9--9-9-------------------|
Db-----9-9--9-9---------------------9-9--9-9-------------------|


Intro (cont.)  Riff 1
eb------------------------------------------------------------]
Bb------------------------------------------------------------]
Gb-----------------6--6-6-6-6-8-6---------------6--6-6-6-6-8-6]
db-----6-6--6-6----8--8-8-8-8-8-8—--6-6--6-6----8--8-8-8-8-8-8]
Ab-----6-6--6-6---------------------6-6--6-6------------------]
Db-----6-6--6-6---------------------6-6--6-6------------------]

eb---
Bb---                     repeat both lines of intro twice and
Gb---                     end with the little ending to the left.
db--2
Ab--2
Db--2


Verse                                            Riff 2
eb--------------------------------------------------------]
Bb--------------------------------------------------------]
Gb--------------------------------------------------------]
db---(9)-----------(2)------------(9)------(6)------(4)---]
Ab---(9)abt.16x----(2)16x again---(9)16x---(6)8x----(4)8x-]
Db---(9)-----------(2)------------(9)------(6)------(4)---]
Repeat verse twice and end with
                                                 Riff 3
eb--------------------------------------------------------|
Bb--------------------------------------------------------|
Gb----------4-4-4-4-4-3----------4—4-4-4-4-3--------------|
db---2—-2-2--------------2-2-2-2--------------------------|
Ab---2—-2-2--------------2-2-2-2--------------------------|
Db---2—-2-2--------------2-2-2-2--------------------------|
(Rough power chord strumming shown. It is flexible though.)
Repeat above (Riff 3) two times after playing verse twice.

Chorus   (same as intro)                          Riff 1
eb-------------------------------------------------------------|
Bb-------------------------------------------------------------|
Gb-----------------6--6-6-6-6-8-6---------------6--6-6-6-6-8-6-|
db-----9-9--9-9----8--8-8-8-8-8-8—--9-9--9-9----8--8-8-8-8-8-8-|
Ab-----9-9--9-9---------------------9-9--9-9-------------------|
Db-----9-9--9-9---------------------9-9--9-9-------------------|


Chorus (cont.)  Riff 1
eb------------------------------------------------------------]
Bb------------------------------------------------------------]
Gb-----------------6--6-6-6-6-8-6---------------6--6-6-6-6-8-6]
db-----6-6--6-6----8--8-8-8-8-8-8—--6-6--6-6----8--8-8-8-8-8-8]
Ab-----6-6--6-6---------------------6-6--6-6------------------]
Db-----6-6--6-6---------------------6-6--6-6------------------]


•	Repeat Chorus (riff 1) twice

•	Play verse again (riff 2 twice)&(riff 3 twice)

•	Play Chorus (riff 1) twice again

Bridge part 1    (where he goes "whooooooaaaaaa")
eb------------------------------------------------------|
Bb------------------------------------------------------|
Gb------------------------------------------------------|
db---(9)------------(6)---------------------------------|
Ab---(9)-abt.20x----(6)-20x-----------------------------|
Db---(9)------------(6)---------------------------------|
                                             Repeat 2x

End with

eb------------------------------------------------------|
Bb------------------------------------------------------|
Gb------------------------------------------------------|
db------2---------------------------------2-------------|
Ab------2-----------let ring--------------2-------------|
Db------2---------------------------------2-------------|


Bridge part 2  (no distortion)

eb------------------------------------|
Bb----0-0-0-0-0-0-0-0-0-0-0-0-0-0-0-0-|
Gb---4-4-4-4-3-3-3-3-6-6-6-6-4-4-4-4--|       Repeat 2x with
Db------------------------------------|    no pause between
Ab------------------------------------|  the repetitions
db------------------------------------|


... stay with me...    cigarettes* and open air hand in hand
eb-----------------------------------------------------------------|
Bb--0-0-0-0-0-0-0-0-0-0-0-0-0-0-0-0-0-0-0-0-0-0-0-0-0-0-0-0-0-0-0--|
Gb-4-4-4-4-6-6-6-6-9-9-9-9-8-8-8-8-4-4-4-4-3-3-3-3-6-6-6-6-4-4-4-4-|
db-----------------------------------------------------------------|
Ab-----------------------------------------------------------------|
Db-----------------------------------------------------------------|
                                                Repeat this thing
                                                 Right above 2x

Bridge part 3 (distortion back on)

eb-----------------------------------------------------|
Bb-----------------------------------------------------|
Gb-----------------------------------------------------|
db---9—9—9----9—9—9-----------6—6—6----6—6—6-----------|
Ab---9—9—9----9—9—9-----------6—6—6----6—6—6-----------|
Db---9—9-9----9—9—9-----------6—6—6----6—6—6-----------|
                                            Repeat 2x

Last chorus thing

eb--------------------------------------------------------|
Bb--------------------------------------------------------|
Gb--------------------------------------------------------|
db--(9)----(11)-----(14)---------(6)------(4)-----(2)-----|
Ab--(9)8x--(11)-8x--(14)-16x-----(6)-8x---(4)-8x—-(2)-16x-|
Db—-(9)----(11)-----(14)---------(6)------(4)-----(2)-----|
                                            Repeat 2x then
Eb--------------------------------|
Bb--------------------------------|
Gb--------------------------------|
db---(9)----(11)-----(14----------|        Let Ring
Ab---(9)-8x—(11)-8x—-(14----------|
Db---(9)----(11)-----(14----------|

"Stay With Me"

once again your eyes make it hard to say goodbye
so i'll just keep driving
where do you wanna go?
it doesn't really matter as long as you are here with me
with me
with me

whoa, there's something in the air tonight
something that makes me feel alive and i say
whoa, what were the words that you said to me
that made me feel so special now

once again your eyes make it hard to ask you why
so i sit here knuckles tight
hands against the wheel
your head against the glass and you mean so much to me
to me
to me

whoa, there's something in the air tonight
something that makes me feel alive and i say
whoa, what were the words that you said to me
that made me feel so special now

whoa (stay with me)
whoa (stay with me)
whoa (stay with me)
whoa (stay)
stay with me
cigarettes* and open air, hand in hand
i said stay with me
cuz every star that i see is brighter than the last
so stay with me


-------------------------------------------
9. Project Mayhem
-------------------------------------------


Drop D Tuning + 1/2 step down

* - Palm mute the chord/note underneath it.
/ - Slide from the note in front to the note afterwards.
X - Mute the strings, stop sound before next note.
: - Hold note/chord after you strum it.
h - Hammer on
> - Bend It (Upwards)

Intro:
eb|-----------------------------|
Bb|-----------------------------|
Gb|-2-2-2-----------------------|
Db|-0-0-0--2p0h20h20h20h2--5-5--|
Ab|-0-0-0--2p0h20h20h20h2--5-5--|
Db|-0-0-0--2p0h20h20h20h2--5-5--|

Verse:
eb|----------------------|
Bb|----------------------|
Gb|----------------------|
Db|-2p0h20h20h20h2--5-5--|
Ab|-2p0h20h20h20h2--5-5--|
Db|-2p0h20h20h20h2--5-5--|

Chorus:
eb|----------------------------------------------------------------|
Bb|------3-3--3-3p1------3-3--3-3p1------3-3--3-3p1----3-3--3-3p1--|
Gb|----------------------------------------------------------------|
Db|-5-5--------------5-5------------2-2------------2-2-------------|
Ab|-5-5--------------5-5------------2-2------------2-2-------------|
Db|-5-5--------------5-5------------2-2------------2-2-------------|

Interlude:
eb|-----------------|
Bb|-----------------|
Gb|-----------------|
Db|-5-5--5-5--5-5---|
Ab|-5-5--5-5--5-5---|
Db|-5-5--5-5--5-5---|

Interlude 2:
eb|-----------------------------|
Bb|-----------------------------|
Gb|-----------------------------|
Db|-5-5--5-5--5-5--2-2-2-2-2-2--|
Ab|-5-5--5-5--5-5--2-2-2-2-2-2--|
Db|-5-5--5-5--5-5--2-2-2-2-2-2--|

Bridge:
eb|------------|
Bb|-3-3--3>-3>-|
Gb|------------|
Db|------------|
Ab|------------|
Db|------------|

Outro:
eb|---------------|
Bb|---------------|
Gb|---------------|
Db|-2--5-5-5-5--2-|
Ab|-2--5-5-5-5--2-|
Db|-2--5-5-5-5--2-|

Outro 2:
eb|-------------------------------|
Bb|-------------------------------|
Gb|-----------------3-3--3>-3>----|
Db|-2p0h20h20h20h2----------------|
Ab|-2p0h20h20h20h2----------------|
Db|-2p0h20h20h20h2----------------|


--------------------------------------------
10. Untitled
--------------------------------------------


Drop D Tuning + 1/2 step down

INTRO (Both Guitars, 2nd Guitar waits then comes in)
eb|--------------------------------------------------------------------------|
Bb|--------------------------------------------------------------------------|
Gb|--444-444-444-444---------------------------------------------------------|
Db|--444-444-444-444-----keep repeating...-----------------------------------|
Ab|--222-222-222-222---------------------------------------------------------|
Db|--------------------------------------------------------------------------|

INTRO PART 2/Chorus (Guitar 1)
eb|---------------------------------------------------------------------------|
Bb|---------------------------------------------------------------------------|
Gb|--444------444-------------------------444------444------------------------|
Db|--444------444------55555555-----------444------444------55555555----------|
Ab|--222------222------55555555-----------222------222------55555555----------|
Db|--------------------55555555-----------------------------55555555----------|

INTRO PART 2/Chorus (Guitar 2)(listen carefully to know when to play the parts)
(end of intro/Chorus going into verse)
eb|---------------------------------------------------------------------------|
Bb|---------------------------------------------------------------------------|
Gb|-----------------------11\14--12--11-----11-11-11-11--x2--11\14--12--11----|
Db|----11-11-11-11-x2-----x--x---x---x-----------------------x--x---x---x-----|
Ab|-----------------------9-\12--10--9-----------------------9-\12--10--9-----|
Db|---------------------------------------------------------------------------|

eb|------------|
Bb|------------|
Gb|-11\14--16~-|
Db|-X--X---X---|
Ab|-9-\12--14~-|
Db|------------|

1st time verse (both Guitars)
eb|---------------------------------------------------------------------------|
Bb|---------------------------------------------------------------------------|
Gb|---------------------------------------------------------------------------|
Db|--0~-----------------------------------------------------------------------|
Ab|--0~-Let ring...-----------------------------------------------------------|
Db|--0~-----------------------------------------------------------------------|

Pre-Chorus (Guitar 1) (Guitar 2, waits a little...)
eb|-----------------------------------||--------------------------------------|
Bb|-----------------------------------||--------------------------------------|
Gb|-----------------------------------||---11-11-11-11\12-12-12-12------------|
Db|---444-444-444-444-444-444-444-444-||---x--x--x--x--x--x--x--x-------------|
Ab|---444-444-444-444-444-444-444-444-||---9--9--9--9-\10-10-10-10------------|
Db|---444-444-444-444-444-444-444-444-||--------------------------------------|

***Play Chorus HERE***

Verse 2nd time(both guitars,Palm mute)
eb|---------------------------------------------------------------------------|
Bb|---------------------------------------------------------------------------|
Gb|---------------------------------------------------------------------------|
Db|---00000000---2222-5555----------------------------------------------------|
Ab|---00000000---2222-5555----------------------------------------------------|
Db|---00000000---2222-5555----------------------------------------------------|
........ .... ....

***Per CHORUS***
Then
***CHORUS***

Interlude...(Guitar 1)
eb|---------------------------------------------------------------------------|
Bb|---------------------------------------------------------------------------|
Gb|-----11--------------------------------------------------------------------|
Db|-----x----keep strumming....-----------------------------------------------|
Ab|-----9---------------------------------------------------------------------|
Db|-----0---------------------------------------------------------------------|

Interlude (Guitar 2 comes in after awhile...)(KEEP Strumming each Chord)
eb|-----------------------------------||----------------------------------------|
Bb|-----------------------------------||----------------------------------------|
Gb|-----11-\12--------keep strumming--||----11--\7---\12\11-----\12\11~---------|
Db|-----x---x-------------------------||----x----x----x--x-------x--x-----------|
Ab|-----9--\10------------------------||----9---\5---\10\9------\10\9-~---------|
Db|-----------------------------------||----------------------------------------|

End of Interlude, Both guitars start messing with this chord...
eb|---------------------------------------------------------------------------|
Bb|---------------------------------------------------------------------------|
Gb|---11----------------------------------------------------------------------|
Db|---x-----------------------------------------------------------------------|
Ab|---9-----------------------------------------------------------------------|
Db|---0-----------------------------------------------------------------------|

Ending (Guitar 1, Just keep repeating)
eb|---------------------------------------------------------------------------|
Bb|---------------------------------------------------------------------------|
Gb|--444----------------------------------------------------------------------|
Db|--444----555---------------------------------------------------------------|
Ab|--222----555---------------------------------------------------------------|
Db|---------555---------------------------------------------------------------|

Ending (Guitar 2, at 1st play same thing as 1st guitar then after a while play this)
eb|---------------------------------------------------------------------------|
Bb|--------------------------7777-7777-7777-7777------------------------------|
Gb|-----6666-6666-6666-6666---------------------------------------------------|
Db|---------------------------------------------------------------------------|
Ab|---------------------------------------------------------------------------|
Db|---------------------------------------------------------------------------|

END WITH THIS
eb|---------------------------------------------------------------------------|
Bb|---------------------------------------------------------------------------|
Gb|------------------------------------4-4-4----------------------------------|
Db|------------------------------------4-4-4----------------------------------|
Ab|------------------------------------2-2-2----------------------------------|
Db|---------------------------------------------------------------------------|


-------------------------------------------
11. Three Simple Words
-------------------------------------------

Tune - Drop D (DADGBe)


h = hammer on
x = mute
~ = let ring

*Intro - (2x) - Destoration
e ----------------------------------------------------------------------------|
B ----------------------------------------------------------------------------|
G ----------------------------------------------------------------------------|
D --5-xxxxxxxxxxxxxx-3-xxxxxxxxxxxxxx-----------------------------------------|
A --3-xxxxxxxxxxxxxx-1-xxxxxxxxxxxxxx-3-xxxxxxxxxxxxxx-1-xxxxxxxxxxxxxx-------|
D ------------------------------------3-xxxxxxxxxxxxxx-1-xxxxxxxxxxxxxx-------|
    Second time thru end with..
D -------------------|
A --11111111111111---|
D --11111111111111---|

*Post Intro - (1x) - Destoration
e ---------------------------------------------------------|
B ---------------------------------------------------------|
G ---------------------------------------------------------|
D --555555555555-333333333333------------------------------|
A --333333333333-111111111111-333333333333-111111xx1xx1----|
D ----------------------------333333333333-111111xx1xx1----|

*Verse - (2x) - Destoration
GUITAR 1:
e ---------------------------------------------------------------------------|
B ---------------------------------------------------------------------------|
G ---------------------------------------------------------------------------|
D --5-xxxxxxxxxxxxxx-3-xxxxxxxxxxxxxx----------------------------------------|
A --3-xxxxxxxxxxxxxx-1-xxxxxxxxxxxxxx-3-xxxxxxxxxxxxxx-11111111--------------|
D ------------------------------------3-xxxxxxxxxxxxxx-11111111--------------|
GUITAR 2:
e ---------------------------------------------------------------------------|
B ---------------------------------------------------------------------------|
G ---------------------------------------------------------------------------|
D ---------------------------------------------------------------------------|
A --3---3h5---3h5----1---1h3---1h3---------------------11111111--------------|
D ------------------------------------3---3h5---3h5----11111111--------------|

*Chorus - (2x) - Destoration
e ---------------------------------------------------------|
B ---------------------------------------------------------|
G ---------------------------------------------------------|
D ---------------555555555555------------------------------|
A --666666666666-333333333333-111111111111-333333333333----|
D --666666666666--------------111111111111-333333333333----|

*Repeat Verse

*Repeat Chorus (4x this time)

*Bridge: Part 1 - Destoration
[NOTE:] I don't know this part of the song. Sorry, but I've picked up a little if you
want to work with it.

Guitar 1 - (1x)
e ------------------------------?------------?------------?------------?------------|
B ------------------------------?------------?------------?------------?------------|
G ------------------------------?------------?------------?------------?------------|
D --55----55----55----55----55--?--55-55-55--?--55-55-55--?--55-55-55--?--55-55-55--|
A --33----33----33----33----33--?--33-33-33--?--33-33-33--?--33-33-33--?--33-33-33--|
D ------------------------------?------------?------------?------------?------------|
Mute      ..    ..    ..

GUITAR 2 - (All I know is..)
e ------------------------|
B ------------------------|
G --12-12-12-12-8-8-8-8---|
D ------------------------|
A ------------------------|
D ------------------------|


*Bridge: Part 2 - Destoration - (4x) - "WHO WILL STOP ME NOW (WHO WILL STOP ME NOW)"
e -----------------------------------------------|
B -----------------------------------------------|
G -----------------------------------------------|
D --5-5-5-5-5------------------------------------|
A --3-3-3-3-3--1-1-1-1-1--6-6-6-6-6--1-1-1-1-1---|
D -------------1-1-1-1-1--6-6-6-6-6--1-1-1-1-1---|

*Repeat Chorus (4x this time)

*End With  (1x)
D -------|
A --6~---|
D --6~---|

LYRICS:
Open up my eyes
Flooded with daylight
Another sleepless night turns color black and white
With all the things I've said
There is just regret
Repeating in my head

Hands into a fist
Static in my head
Now I'm sitting face to face with loneliness
What did I expect?
Did I see forever
In you?

I never... want it to hurt
More than it should
I hope you're... satisfied
I never could

Time to close my eyes
Forget about this mess
And try to fix this tragic loss of innocence
But how can I forget
The things I have inside
When everything is dead?

I never... want it to hurt
More than it should
I hope you're... satisfied
I never could
Can't you SEE
You left ME
Here on my own
Give me ONE
Good reaSON
Why I should let go

With my hands around your neck
Who will stop me now?
With my hands around your neck
Who will stop me now?

With my hands around your neck
Who will stop me now?
With my hands around your neck
WHO WILL STOP ME NOW? (WHO WILL STOP ME NOW?)

WHO WILL STOP ME NOW? (WHO WILL STOP ME NOW?)
WHO WILL STOP ME NOW? (WHO WILL STOP ME NOW?)
WHO WILL STOP ME NOW? (WHO WILL STOP ME NOW?)
WHO WILL STOP ME NOW? (WHO WILL STOP ME NOW?)
WHO WILL STOP ME NOW? (WHO WILL STOP ME NOW?)
WHO WILL STOP ME NOW? (WHO WILL STOP ME NOW?)
WHO WILL STOP ME NOW? (WHO WILL STOP ME NOW?)


I never... want it to hurt
More than it should
I hope you're... satisfied
I never could
Can't you SEE
You left ME
Here on my own
Give me ONE
Good reaSON
Why i should let go now


-----------------------------------------------
12.Ender
-----------------------------------------------

Intro/Verse

Eb---------------------------------------------------------------|
Bb---------------------------------------------------------------|
Gb---------------------------------------------------------------|
Db---999999999999---0004/5-5-5/7---777777777777---07777/55/444---|
Ab---999999999999---000000000000---555555555555---000000000000---|
Db---999999999999---000000000000---555555555555---000000000000---|

Eb---------------------------------------------------------------|
Bb------------------------------------------------------555555---|
Gb------------------------------------------------7-6-7-777777---|
Db---999999999999---0004/5-5-5/7---777777777777---0-0-0-000000---|
Ab---999999999999---000000000000---555555555555------------------|
Db---999999999999---000000000000---555555555555------------------|

Fill

Eb------------------|
Bb---------555555---|
Gb---7-6-7-777777/--|-slide into chorus
Db---0-0-0-000000/--|
Ab------------------|
Db------------------|

Chorus

Eb--------------------------------------------------------------------|
Bb---1010101010101010/12121212---888888888888---3333333333-2-33333333-|
Gb---9 9 9 9 9 9 9 9 /11111111---777777777777---2222222222-2-22222222-|
Db---7 7 7 7 7 7 7 7 /9 9 9 9 ---555555555555---0000000000-0-00000000-|
Ab---7 7 7 7 7 7 7 7 /9 9 9 9 ---555555555555---0000000000-0-00000000-|
Db---7 7 7 7 7 7 7 7 /9 9 9 9 ---555555555555---0000000000-0-00000000-|

Eb------------------------------------------------|
Bb---1010101010101010/12121212---8888888888-------|
Gb---9 9 9 9 9 9 9 9 /11111111---7777777777-7-6---|Back To Verse
Db---7 7 7 7 7 7 7 7 /9 9 9 9 ---5555555555-------| First Time
Ab---7 7 7 7 7 7 7 7 /9 9 9 9 ---5555555555-------|
Db---7 7 7 7 7 7 7 7 /9 9 9 9 ---5555555555-------|

Bridge

Eb-----------------------------------------------------------------|
Bb-----------------------------------------------------------------|
Gb-----------------------------------------------------------------|
Db---9999999999---111111--121212121212---5555555555—--0000000000---|
Ab---9999999999---111111--121212121212---5555555555—--0000000000---|
Db---9999999999---111111--121212121212---5555555555—--0000000000---|

Rad Bit

Eb---------5---------5------------5---------5----------|
Bb-----5h7---7---5h7---7p5----5h7---7---5h7---7p5------|
Gb---7----------------------7----------------------7---|
Db-----------------------------------------------------|
Ab-----------------------------------------------------|
Db-----------------------------------------------------|

End on

Eb-------|
Bb---3---|
Gb---2---|Let it Ring...
Db---0---|
Ab---0---|
Db---0---|

Song Order

Intro   x1
Verse   x2
Fill    x1
Chorus  x1 - back to verse
Verse   x2
Fill    x1
Chorus  x2 - on to bridge
Bridge  x4
Rad Bit x8
Chorus  x2
Ending


--------------------------------------------
13.What It Is To Burn
--------------------------------------------


====NOTATION INFO====
"  = Let Ring       |
p  = Pull-Off       |
h  = Hammer-On      |
pm = Palm Mute      |
/  = Slide Up       |
\  = Slide Down     |
x  = Not Played     |
=====================

===TUNING INFO===
Standard Tuning |
Low To High     |
(E,A,D,G,B,E)   |
=================

		All played w/ Guitars 1 + 2 unless otherwise noted


				LYRICS AT BOTTOM
++++++++++++++++++++++++++++++++++++++++++++++++++++++++++++++++++++++++++++++
++++++++++++++++++++++++++++++++++++++++++++++++++++++++++++++++++++++++++++++

				INTRO Pt. 1 (Strings)

e|---------------------------------------------------------------------------|
B|---------------------------------------------------------------------------|
G|---------------------------------------------------------------------------|
D|---------------------------------------------------------------------------|
A|-44444444-------------------44444444----------33333333---------------------|
E|----------66666666-44444444----------22222222------------------------------|
pm......................................................

				Intro Pt. 2

e|---------------------------------------------------------------------------|
B|---------------------------------------------------------------------------|
G|---------------------------------------------------------------------------|
D|---------------------------------------------------------------------------|
A|-44444444------------------------------------------------------------------|
E|----------66666666-44444444-22222222---------------------------------------|
pm....................................


				INTRO Pt. 3

e|---------------------------------------------------------------------------|
B|---------------------------------------------------------------------------|
G|-6666-5555/6666------5555/6666------5555/6666-------------|Repeat 2 Times|-|
D|-6666-xxxx-xxxx-8888-xxxx-xxxx-6666-xxxx-xxxx-44444004"--------------------|
A|-4444-3333/4444-8888-3333/4444-6666-3333/4444-44444004"--------------------|
E|----------------6666-----------4444-----------22222002"--------------------|
pm                                                   ..

++++++++++++++++++++++++++++++++++++++++++++++++++++++++++++++++++++++++++++++
++++++++++++++++++++++++++++++++++++++++++++++++++++++++++++++++++++++++++++++

				VERSE Pt. 1

(Play w/ Guitar 1 While Guitar 2 Plays Pt. 2 of the Verse)

e|---6"""---4"""---6"""---4"""-----------------------------------------------|
B|------------------------------6--6--6--6--6--6-----------------------------|
G|-------------------------------6--6-----6--6------|See Note|---------------|
D|-----------------------------6--6--6--6--6--6------------------------------|
A|-4-------------------------------------------------------------------------|
E|---------------4-----------------------------------------------------------|

				VERSE Pt. 2

e|---------------------------------------------------------------------------|
B|---------------------------------------------------------------------------|
G|---------------------------------------------------------------------------|
D|-66666666------------------------------------------------------------------|
A|-44444444-88888888-44444444-66666666---------------------------------------|
E|----------66666666-22222222-44444444---------------------------------------|
pm....................................

(NOTE:     In  the first verse of the song "Pt. 1" is played once and in the
       second verse it is played twice.)

++++++++++++++++++++++++++++++++++++++++++++++++++++++++++++++++++++++++++++++
++++++++++++++++++++++++++++++++++++++++++++++++++++++++++++++++++++++++++++++

				CHORUS

e|---------------------------------------------------------------------------|
B|---------------------------------------------------------------------------|
G|-6666-5555/6666------5555/6666------5555/6666-------------|Repeat 2 Times|-|
D|-6666-xxxx-xxxx-8888-xxxx-xxxx-6666-xxxx-xxxx-44444004"--------------------|
A|-4444-3333/4444-8888-3333/4444-6666-3333/4444-44444004"--------------------|
E|----------------6666-----------4444-----------22222002"--------------------|
pm                                                   ..

++++++++++++++++++++++++++++++++++++++++++++++++++++++++++++++++++++++++++++++
++++++++++++++++++++++++++++++++++++++++++++++++++++++++++++++++++++++++++++++

				BRIDGE INTRO

e|---------------------------------------------------------------------------|
B|-------------------------------------------|Play Throughout Bridge|--------|
G|-88888888p666666h88888888p666666 etc.--------------------------------------|
D|---------------------------------------------------------------------------|
A|--------------------------------------|# Of Times Each Fret Is Picked|-----|
E|--------------------------------------|Is Not Exact                  |-----|

++++++++++++++++++++++++++++++++++++++++++++++++++++++++++++++++++++++++++++++
++++++++++++++++++++++++++++++++++++++++++++++++++++++++++++++++++++++++++++++

				BRIDGE

e|-------------------------------|This Section Is Best       |---------------|
B|-7\6/7\6/7\6\4----|Repeat|-----|Achieved With Fingerpicking|---------------|
G|-x-x-x-x-x-x-x-6--|Eight |-------------------------------------------------|
D|-x-x-x-x-x-x-x-x--|Times |-------------------------------------------------|
A|-9\8/9\8/9\8\6-4-----------------------------------------------------------|
E|---------------------------------------------------------------------------|

++++++++++++++++++++++++++++++++++++++++++++++++++++++++++++++++++++++++++++++
++++++++++++++++++++++++++++++++++++++++++++++++++++++++++++++++++++++++++++++

				OUTRO

e|---------------------------------------------------------------------------|
B|---------------------------------------------------------------------------|
G|-6"""-6/-------------------------------------------------------------------|
D|-6"""-6/8"""-8\6"""""-6\4""""""""""""""""""--------------------------------|
A|-4"""-4/8"""-8\6"""""-6\4""""""""""""""""""--------------------------------|
E|--------6"""-6\4"""""-4\2""""""""""""""""""--------------------------------|


++++++++++++++++++++++++++++++++++++++++++++++++++++++++++++++++++++++++++++++
++++++++++++++++++++++++++++++++++++++++++++++++++++++++++++++++++++++++++++++

				LYRICS:

			      Today's on fire
		The sky is beating above me, and I am blister
		I walk these signs of blasphemy, every day
				And still:

		Like a bad star, I'm falling faster down to her
		She's the only one who knows, what it is to burn

	                     I feel diseased
		     Is there no sympathy, for the sun
			   The sky's still fire
		 But I am safe in here, from the world outside

			        So tell me
                       What's the price to pay for glory

		Like a bad star, I'm falling faster down to her
		She's the only one who knows, what it is to burn

			Today is fine, and she burns
			Today is fine, and she burns
				She burns
				She burns
				She burns
				She burns
				She burns
				She burns

		Like a bad star, I'm falling faster down to her
		She's the only one who knows, what it is to burn
Comments