Finch - What It Is To Burn Chords & Tabs

 

What It Is To Burn Chords & Tabs

Finch Chords & Tabs

Version: 6 Type: Tab 0 ratings
1 star 2 stars 3 stars 4 stars 5 stars
comments

What It Is To Burn Tab

What It Is To Burn 
"Guitar 1"                               

                      Violin                                            
D#||-------|------|------|------|------|------|-------------------|
A#||-------|------|------|------|------|------|-------------------|
F#||*------|------|------|------|------|------|-------------------|
C#||*------|------|------|------|------|------|--5----------------|
G#||-------|------|------|------|------|------|--5----------------|
C#||-------|------|------|------|------|------|--5----------------|

                                                                           
------------------||---------------------------|--------------------------|
------------------||---------------------------|--------------------------|
------------------||*--7--7--7--7--7--7--7--7--|--7--7--7--7--7--7--7--7--|
------------------||*--7--7--7--7--7--7--7--7--|--7--7--7--7--7--7--7--7--|
------------------||---5--5--5--5--5--5--5--5--|--5--5--5--5--5--5--5--5--|
------------------||---------------------------|--------------------------|

                                                      
--------------------------|--------------------------|
--------------------------|--------------------------|
--4--4--4--4--4--4--4--4--|--4--4--4--4--4--4--4--4--|
--4--4--4--4--4--4--4--4--|--4--4--4--4--4--4--4--4--|
--2--2--2--2--2--2--2--2--|--2--2--2--2--2--2--2--2--|
--------------------------|--------------------------|

                                                      
--------------------------|--------------------------|
--------------------------|--------------------------|
--------------------------|--------------------------|
--7--7--7--7--7--7--7--7--|--7--7--7--7--7--7--7--7--|
--7--7--7--7--7--7--7--7--|--7--7--7--7--7--7--7--7--|
--7--7--7--7--7--7--7--7--|--7--7--7--7--7--7--7--7--|

                                                        
--------------------------|---------------------------||
--------------------------|---------------------------||
--------------------------|--------------------------*||
--5--5--5--5--5--5--5--5--|--5--5--5--5--5--5--5--5--*||
--5--5--5--5--5--5--5--5--|--5--5--5--5--5--5--5--5---||
--5--5--5--5--5--5--5--5--|--5--5--5--5--5--5--5--5---||

                                                       
-------------------------||---------------------------|
-------------------------||---------------------------|
-------------------------||*--7--7--7--7--7--7--7--7--|
--5--5--5--5--5--5--5----||*--7--7--7--7--7--7--7--7--|
--5--5--5--5--5--5--5----||---5--5--5--5--5--5--5--5--|
--5--5--5--5--5--5--5----||---------------------------|

                                                      
--------------------------|--------------------------|
--------------------------|--------------------------|
--7--7--7--7--7--7--7--7--|--7--7--7--7--7--7--7--7--|
--7--7--7--7--7--7--7--7--|--7--7--7--7--7--7--7--7--|
--5--5--5--5--5--5--5--5--|--4--4--4--4--4--4--4--4--|
--------------------------|--------------------------|

                                                      
--------------------------|--------------------------|
--------------------------|--------------------------|
--7--7--7--7--7--7--7--7--|--------------------------|
--7--7--7--7--7--7--7--7--|--5--5--5--5--5--5--5--5--|
--4--4--4--4--4--4--4--4--|--5--5--5--5--5--5--5--5--|
--------------------------|--5--5--5--5--5--5--5--5--|

                                                      
--------------------------|--------------------------|
--------------------------|--------------------------|
--------------------------|--------------------------|
--5--5--5--5--5--5--5--5--|--5--5--5--5--5--5--5--5--|
--5--5--5--5--5--5--5--5--|--5--5--5--5--5--5--5--5--|
--5--5--5--5--5--5--5--5--|--5--5--5--5--5--5--5--5--|

                                                                            
---------------------------||--------------------------|-------------------|
---------------------------||--------------------------|-------------------|
--------------------------*||--------------------------|-------------------|
--5--5--5--5--5--5--5--5--*||--7--7--7--7--7--7--7--7--|--7----------------|
--5--5--5--5--5--5--5--5---||--7--7--7--7--7--7--7--7--|--7----------------|
--5--5--5--5--5--5--5--5---||--7--7--7--7--7--7--7--7--|--7----------------|

                                                        
|---------------------------|--------------------------|
|---------------------------|--------------------------|
|*--7--7--7--7--7--7--7--7--|--7--7--7--7--7--7--7--7--|
|*--7--7--7--7--7--7--7--7--|--7--7--7--7--7--7--7--7--|
|---5--5--5--5--5--5--5--5--|--5--5--5--5--5--5--5--5--|
|---------------------------|--------------------------|

                                                      
--------------------------|--------------------------|
--------------------------|--------------------------|
--4--4--4--4--4--4--4--4--|--4--4--4--4--4--4--4--4--|
--4--4--4--4--4--4--4--4--|--4--4--4--4--4--4--4--4--|
--2--2--2--2--2--2--2--2--|--2--2--2--2--2--2--2--2--|
--------------------------|--------------------------|

                                                      
--------------------------|--------------------------|
--------------------------|--------------------------|
--------------------------|--------------------------|
--7--7--7--7--7--7--7--7--|--7--7--7--7--7--7--7--7--|
--7--7--7--7--7--7--7--7--|--7--7--7--7--7--7--7--7--|
--7--7--7--7--7--7--7--7--|--7--7--7--7--7--7--7--7--|

                                                        
--------------------------|---------------------------||
--------------------------|---------------------------||
--------------------------|--------------------------*||
--5--5--5--5--5--5--5--5--|--5--5--5--5--5--5--5--5--*||
--5--5--5--5--5--5--5--5--|--5--5--5--5--5--5--5--5---||
--5--5--5--5--5--5--5--5--|--5--5--5--5--5--5--5--5---||

                                                       
-------------------------||---------------------------|
-------------------------||---------------------------|
-------------------------||*--7--7--7--7--7--7--7--7--|
--5--5--5--5--5--5--5----||*--7--7--7--7--7--7--7--7--|
--5--5--5--5--5--5--5----||---5--5--5--5--5--5--5--5--|
--5--5--5--5--5--5--5----||---------------------------|

                                                      
--------------------------|--------------------------|
--------------------------|--------------------------|
--7--7--7--7--7--7--7--7--|--7--7--7--7--7--7--7--7--|
--7--7--7--7--7--7--7--7--|--7--7--7--7--7--7--7--7--|
--5--5--5--5--5--5--5--5--|--4--4--4--4--4--4--4--4--|
--------------------------|--------------------------|

                                                      
--------------------------|--------------------------|
--------------------------|--------------------------|
--7--7--7--7--7--7--7--7--|--------------------------|
--7--7--7--7--7--7--7--7--|--5--5--5--5--5--5--5--5--|
--4--4--4--4--4--4--4--4--|--5--5--5--5--5--5--5--5--|
--------------------------|--5--5--5--5--5--5--5--5--|

                                                      
--------------------------|--------------------------|
--------------------------|--------------------------|
--------------------------|--------------------------|
--5--5--5--5--5--5--5--5--|--5--5--5--5--5--5--5--5--|
--5--5--5--5--5--5--5--5--|--5--5--5--5--5--5--5--5--|
--5--5--5--5--5--5--5--5--|--5--5--5--5--5--5--5--5--|

                                                                            
---------------------------||--------------------------|-------------------|
---------------------------||--------------------------|-------------------|
--------------------------*||--------------------------|-------------------|
--5--5--5--5--5--5--5--5--*||--7--7--7--7--7--7--7--7--|--7----------------|
--5--5--5--5--5--5--5--5---||--7--7--7--7--7--7--7--7--|--7----------------|
--5--5--5--5--5--5--5--5---||--7--7--7--7--7--7--7--7--|--7----------------|

                                                        
|---------------------------|--------------------------|
|---------------------------|--------------------------|
|*--7--7--7--7--7--7--7--7--|--7--7--7--7--7--7--7--7--|
|*--7--7--7--7--7--7--7--7--|--7--7--7--7--7--7--7--7--|
|---5--5--5--5--5--5--5--5--|--5--5--5--5--5--5--5--5--|
|---------------------------|--------------------------|

                                                      
--------------------------|--------------------------|
--------------------------|--------------------------|
--4--4--4--4--4--4--4--4--|--4--4--4--4--4--4--4--4--|
--4--4--4--4--4--4--4--4--|--4--4--4--4--4--4--4--4--|
--2--2--2--2--2--2--2--2--|--2--2--2--2--2--2--2--2--|
--------------------------|--------------------------|

                                                      
--------------------------|--------------------------|
--------------------------|--------------------------|
--------------------------|--------------------------|
--7--7--7--7--7--7--7--7--|--7--7--7--7--7--7--7--7--|
--7--7--7--7--7--7--7--7--|--7--7--7--7--7--7--7--7--|
--7--7--7--7--7--7--7--7--|--7--7--7--7--7--7--7--7--|

                                                                           
--------------------------|---------------------------||------------------|
--------------------------|---------------------------||------------------|
--------------------------|--------------------------*||------------------|
--5--5--5--5--5--5--5--5--|--5--5--5--5--5--5--5--5--*||------------------|
--5--5--5--5--5--5--5--5--|--5--5--5--5--5--5--5--5---||------------------|
--5--5--5--5--5--5--5--5--|--5--5--5--5--5--5--5--5---||------------------|

                                                           
------------------|----|----|----|----|----|----|----|----|
------------------|----|----|----|----|----|----|----|----|
------------------|----|----|----|----|----|----|----|----|
------------------|----|----|----|----|----|----|----|----|
------------------|----|----|----|----|----|----|----|----|
------------------|----|----|----|----|----|----|----|----|

                                                      
--------------------------|--------------------------|
--------------------------|--------------------------|
--9--9--7--7--6--6--7--7--|--6--6--4--4--6--6--------|
--7--7--5--5--4--4--5--5--|--4--4--2--2--4--4--7--7--|
--------------------------|--------------------5--5--|
--------------------------|--------------------------|

                                                      
--------------------------|--------------------------|
--------------------------|--------------------------|
--9--9--7--7--6--6--7--7--|--6--6--4--4--6--6--------|
--7--7--5--5--4--4--5--5--|--4--4--2--2--4--4--7--7--|
--------------------------|--------------------5--5--|
--------------------------|--------------------------|

                                                      
--------------------------|--------------------------|
--------------------------|--------------------------|
--9--9--7--7--6--6--7--7--|--6--6--4--4--6--6--------|
--7--7--5--5--4--4--5--5--|--4--4--2--2--4--4--7--7--|
--------------------------|--------------------5--5--|
--------------------------|--------------------------|

                                                                          
--------------------------|--------------------------|-------------------|
--------------------------|--------------------------|-------------------|
--9--9--9--9--9--9--9--9--|--9--9--9--9--9--9--9--9--|--9----------------|
--7--7--7--7--7--7--7--7--|--7--7--7--7--7--7--7--7--|--7----------------|
--------------------------|--------------------------|-------------------|
--------------------------|--------------------------|-------------------|

                                                                           
------------------||---------------------------|--------------------------|
------------------||---------------------------|--------------------------|
------------------||*--7--7--7--7--7--7--7--7--|--7--7--7--7--7--7--7--7--|
------------------||*--7--7--7--7--7--7--7--7--|--7--7--7--7--7--7--7--7--|
------------------||---5--5--5--5--5--5--5--5--|--5--5--5--5--5--5--5--5--|
------------------||---------------------------|--------------------------|
[ Tab from: http://www.guitartabs.cc/tabs/f/finch/what_it_is_to_burn_tab_ver_6.html ]
                                                      
--------------------------|--------------------------|
--------------------------|--------------------------|
--4--4--4--4--4--4--4--4--|--4--4--4--4--4--4--4--4--|
--4--4--4--4--4--4--4--4--|--4--4--4--4--4--4--4--4--|
--2--2--2--2--2--2--2--2--|--2--2--2--2--2--2--2--2--|
--------------------------|--------------------------|

                                                      
--------------------------|--------------------------|
--------------------------|--------------------------|
--------------------------|--------------------------|
--7--7--7--7--7--7--7--7--|--7--7--7--7--7--7--7--7--|
--7--7--7--7--7--7--7--7--|--7--7--7--7--7--7--7--7--|
--7--7--7--7--7--7--7--7--|--7--7--7--7--7--7--7--7--|

                                                      3x                    
--------------------------|---------------------------||-------------------|
--------------------------|---------------------------||-------------------|
--------------------------|--------------------------*||-------------------|
--5--5--5--5--5--5--5--5--|--5--5--5--5--5--5--5--5--*||--0----------------|
--5--5--5--5--5--5--5--5--|--5--5--5--5--5--5--5--5---||--0----------------|
--5--5--5--5--5--5--5--5--|--5--5--5--5--5--5--5--5---||--0----------------|

                                                          
------------------|------------------|------------------||
------------------|------------------|------------------||
------------------|------------------|------------------||
------------------|------------------|------------------||
------------------|------------------|------------------||
------------------|------------------|------------------||



"Guitar 2"
                           Violin
D#||-------|------|------|------|------|------|------|------|
A#||-------|------|------|------|------|------|------|------|
F#||*------|------|------|------|------|------|------|------|
C#||*------|------|------|------|------|------|------|------|
G#||-------|------|------|------|------|------|------|------|
C#||-------|------|------|------|------|------|------|------|

                                                        
|---------------------------|--------------------------|
|---------------------------|--------------------------|
|*--7--7--7--7--7--7--7--7--|--6--6--6--6--7--7--7--7--|
|*--x--x--x--x--x--x--x--x--|--x--x--x--x--x--x--x--x--|
|---5--5--5--5--5--5--5--5--|--4--4--4--4--5--5--5--5--|
|---------------------------|--------------------------|

                                                      
--------------------------|--------------------------|
--------------------------|--------------------------|
--4--4--4--4--4--4--4--4--|--6--6--6--6--7--7--7--7--|
--x--x--x--x--x--x--x--x--|--x--x--x--x--x--x--x--x--|
--2--2--2--2--2--2--2--2--|--4--4--4--4--5--5--5--5--|
--------------------------|--------------------------|

                                                      
--------------------------|--------------------------|
--------------------------|--------------------------|
--9--9--9--9--9--9--9--9--|--6--6--6--6--7--7--7--7--|
--x--x--x--x--x--x--x--x--|--x--x--x--x--x--x--x--x--|
--7--7--7--7--7--7--7--7--|--4--4--4--4--5--5--5--5--|
--------------------------|--------------------------|

                                                        
--------------------------|---------------------------||
--------------------------|---------------------------||
--7--7--7--7--7--7--7--7--|--2--2--2--2--2--2--2--2--*||
--x--x--x--x--x--x--x--x--|--x--x--x--x--x--x--x--x--*||
--5--5--5--5--5--5--5--5--|--0--0--0--0--0--0--0--0---||
--------------------------|---------------------------||

                                                                       
--------------------------||-------------------|----------------------|
--------------------------||-------------------|------12--------10----|
--2--2--2--2--2--2--2--2--||*------------------|----------------------|
--x--x--x--x--x--x--x--x--||*------------------|----------------------|
--0--0--0--0--0--0--0--0--||-------------------|----------------------|
--------------------------||-------------------|----------------------|

                                                                     
------------------|----------------------|--------------------------|
------------------|------12--------10----|--------------------------|
------------------|----------------------|--11----------------11----|
------------------|----------------------|--------12----------------|
------------------|----------------------|--------------12----------|
------------------|----------------------|--------------------------|

                                                      
--------------------------|--------------------------|
--------------------------|--------------------------|
--------------11----------|--11----------------11----|
--12----------------------|--------12----------------|
--------12----------12----|--------------12----------|
--------------------------|--------------------------|

                                                            
-------------------------||--------------------------|-----|
-------------------------||--------------------------|-----|
--------------11--------*||--------------------------|-----|
--12--------------------*||--7--7--7--7--7--7--7--7--|--7--|
--------12---------------||--7--7--7--7--7--7--7--7--|--7--|
-------------------------||--7--7--7--7--7--7--7--7--|--7--|

                                                        
|---------------------------|--------------------------|
|---------------------------|--------------------------|
|*--7--7--7--7--7--7--7--7--|--6--6--6--6--7--7--7--7--|
|*--x--x--x--x--x--x--x--x--|--x--x--x--x--x--x--x--x--|
|---5--5--5--5--5--5--5--5--|--4--4--4--4--5--5--5--5--|
|---------------------------|--------------------------|

                                                      
--------------------------|--------------------------|
--------------------------|--------------------------|
--4--4--4--4--4--4--4--4--|--6--6--6--6--7--7--7--7--|
--x--x--x--x--x--x--x--x--|--x--x--x--x--x--x--x--x--|
--2--2--2--2--2--2--2--2--|--4--4--4--4--5--5--5--5--|
--------------------------|--------------------------|

                                                      
--------------------------|--------------------------|
--------------------------|--------------------------|
--9--9--9--9--9--9--9--9--|--6--6--6--6--7--7--7--7--|
--x--x--x--x--x--x--x--x--|--x--x--x--x--x--x--x--x--|
--7--7--7--7--7--7--7--7--|--4--4--4--4--5--5--5--5--|
--------------------------|--------------------------|

                                                        
--------------------------|---------------------------||
--------------------------|---------------------------||
--7--7--7--7--7--7--7--7--|--2--2--2--2--2--2--2--2--*||
--x--x--x--x--x--x--x--x--|--x--x--x--x--x--x--x--x--*||
--5--5--5--5--5--5--5--5--|--0--0--0--0--0--0--0--0---||
--------------------------|---------------------------||

                                                                       
--------------------------||-------------------|----------------------|
--------------------------||-------------------|------12--------10----|
--2--2--2--2--2--2--2--2--||*------------------|----------------------|
--x--x--x--x--x--x--x--x--||*------------------|----------------------|
--0--0--0--0--0--0--0--0--||-------------------|----------------------|
--------------------------||-------------------|----------------------|

                                                                     
------------------|----------------------|--------------------------|
------------------|------12--------10----|--------------------------|
------------------|----------------------|--11----------------11----|
------------------|----------------------|--------12----------------|
------------------|----------------------|--------------12----------|
------------------|----------------------|--------------------------|

                                                      
--------------------------|--------------------------|
--------------------------|--------------------------|
--------------11----------|--11----------------11----|
--12----------------------|--------12----------------|
--------12----------12----|--------------12----------|
--------------------------|--------------------------|

                                                                          
-------------------------||--------------------------|-------------------|
-------------------------||--------------------------|-------------------|
--------------11--------*||--------------------------|-------------------|
--12--------------------*||--7--7--7--7--7--7--7--7--|--7----------------|
--------12---------------||--7--7--7--7--7--7--7--7--|--7----------------|
-------------------------||--7--7--7--7--7--7--7--7--|--7----------------|

                                                        
|---------------------------|--------------------------|
|---------------------------|--------------------------|
|*--7--7--7--7--7--7--7--7--|--6--6--6--6--7--7--7--7--|
|*--x--x--x--x--x--x--x--x--|--x--x--x--x--x--x--x--x--|
|---5--5--5--5--5--5--5--5--|--4--4--4--4--5--5--5--5--|
|---------------------------|--------------------------|

                                                      
--------------------------|--------------------------|
--------------------------|--------------------------|
--4--4--4--4--4--4--4--4--|--6--6--6--6--7--7--7--7--|
--x--x--x--x--x--x--x--x--|--x--x--x--x--x--x--x--x--|
--2--2--2--2--2--2--2--2--|--4--4--4--4--5--5--5--5--|
--------------------------|--------------------------|

                                                      
--------------------------|--------------------------|
--------------------------|--------------------------|
--9--9--9--9--9--9--9--9--|--6--6--6--6--7--7--7--7--|
--x--x--x--x--x--x--x--x--|--x--x--x--x--x--x--x--x--|
--7--7--7--7--7--7--7--7--|--4--4--4--4--5--5--5--5--|
--------------------------|--------------------------|

                                                                            
--------------------------|---------------------------||----|----|----|----|
--------------------------|---------------------------||----|----|----|----|
--7--7--7--7--7--7--7--7--|--2--2--2--2--2--2--2--2--*||----|----|----|----|
--x--x--x--x--x--x--x--x--|--x--x--x--x--x--x--x--x--*||----|----|----|----|
--5--5--5--5--5--5--5--5--|--0--0--0--0--0--0--0--0---||----|----|----|----|
--------------------------|---------------------------||----|----|----|----|

                                                                           
----|----|----|----|----|----|----|----|----|----|----|----|----|----|----|
----|----|----|----|----|----|----|----|----|----|----|----|----|----|----|
----|----|----|----|----|----|----|----|----|----|----|----|----|----|----|
----|----|----|----|----|----|----|----|----|----|----|----|----|----|----|
----|----|----|----|----|----|----|----|----|----|----|----|----|----|----|
----|----|----|----|----|----|----|----|----|----|----|----|----|----|----|

                                                                           
------------------||---------------------------|--------------------------|
------------------||---------------------------|--------------------------|
------------------||*--7--7--7--7--7--7--7--7--|--6--6--6--6--7--7--7--7--|
------------------||*--x--x--x--x--x--x--x--x--|--x--x--x--x--x--x--x--x--|
------------------||---5--5--5--5--5--5--5--5--|--4--4--4--4--5--5--5--5--|
------------------||---------------------------|--------------------------|

                                                      
--------------------------|--------------------------|
--------------------------|--------------------------|
--4--4--4--4--4--4--4--4--|--6--6--6--6--7--7--7--7--|
--x--x--x--x--x--x--x--x--|--x--x--x--x--x--x--x--x--|
--2--2--2--2--2--2--2--2--|--4--4--4--4--5--5--5--5--|
--------------------------|--------------------------|

                                                      
--------------------------|--------------------------|
--------------------------|--------------------------|
--9--9--9--9--9--9--9--9--|--6--6--6--6--7--7--7--7--|
--x--x--x--x--x--x--x--x--|--x--x--x--x--x--x--x--x--|
--7--7--7--7--7--7--7--7--|--4--4--4--4--5--5--5--5--|
--------------------------|--------------------------|

                                                      3x                    
--------------------------|---------------------------||-------------------|
--------------------------|---------------------------||-------------------|
--7--7--7--7--7--7--7--7--|--2--2--2--2--2--2--2--2--*||-------------------|
--x--x--x--x--x--x--x--x--|--x--x--x--x--x--x--x--x--*||--0----------------|
--5--5--5--5--5--5--5--5--|--0--0--0--0--0--0--0--0---||--0----------------|
--------------------------|---------------------------||--0----------------|
Comments