Finch - What It Is To Burn Chords & Tabs

 

What It Is To Burn Chords & Tabs

Finch Chords & Tabs

Version: 5 Type: Tab 0 ratings
1 star 2 stars 3 stars 4 stars 5 stars
comments

What It Is To Burn Tab

Finch - What It Is To Burn
Drop D 1/2 step

this tab looks messy and confusing but if you read it right
and do what i say it will sound almost exactly like the song.

*= Harmonic

Intro
E----------
B----------
G--7*------ Keep the pickups close to your amp for the feedback effect
D-----7*--- and just kinda pick out those harmonics randomly
A-------7*-
D----------

Violin Intro (PM throughout)
E-----------------------------------------------------
B-----------------------------------------------------
G-----------------------------------------------------
D-----------------------------------------------------
A--0-0-0-0-0-0-0-0--7-7-7-7-7-7-7-7--5-5-5-5-5-5-5-5--
D--0-0-0-0-0-0-0-0--7-7-7-7-7-7-7-7--5-5-5-5-5-5-5-5--

Chorus/Main Riff
E----------------------------------------------------------------------------------
B----------------------------------------------------------------------------------
G------------------6-6-6-6-7-7-7-7-----------------6-6-6-6-7-7-7-7-9-9-9-9-9-9-9-9-
D--0-0-0-0-0-0-0-0-x-x-x-x-x-x-x-x-7-7-7-7-7-7-7-7-x-x-x-x-x-x-x-x-x-x-x-x-x-x-x-x-
A--0-0-0-0-0-0-0-0-4-4-4-4-5-5-5-5-7-7-7-7-7-7-7-7-4-4-4-4-5-5-5-5-7-7-7-7-7-7-7-7-
D--0-0-0-0-0-0-0-0-----------------7-7-7-7-7-7-7-7---------------------------------
[ Tab from: http://www.guitartabs.cc/tabs/f/finch/what_it_is_to_burn_tab_ver_5.html ]
E--------------------------------------------------
B--------------------------------------------------
G--7-7-7-7-7-6-6-6---------------------------------
D--x-x-x-x-x-x-x-x-5-5-5-5-5-5-5-5-5-5-5-5-4-4-4-4-
A--5-5-5-5-4-4-4-4-5-5-5-5-5-5-5-5-5-5-5-5-4-4-4-4-
D------------------5-5-5-5-5-5-5-5-5-5-5-5-4-4-4-4-
^leave this out and replace it with this
the second time around
E--------------
B--------------
G--------------
D----------5*--
A--0-0-0-0-5*--
D--0-0-0-0-----
PM.......

The verse is basically that violin part but here's what
the lead guitar does after the the A5 power chord

E------------------
B----7-----7-----7-
G------7-----7-----
D--5-----5-----5---
A------------------
D------------------

Interlude
E----5---5-- --5-5-5-5-5-5-5-5-------------------------------
B--7---7--7- Make Feedback ------------------8-8-8-8-7-7-7-7-
G----------- ------------------------------------------------
D----------- ------------------------------------------------
A----------- ------------------------------------------------
D----------- ------------------------------------------------
PM...............................

After awhile it goes into
E----------------------------------
B--5-5-5-5-5-5-5-5-3-3-3-3-2-2-2-2-
G---------------------------------- Do that twice then go back to the 5th fret
D---------------------------------- and hit that a bunch of time fading out of
A---------------------------------- the palm mute
D----------------------------------
PM...............................

Do the chorus and after you do it twice then the lead guitar does this
E--5---------------
B----8-5-7-5-7---7-
G--------------7---
D------------------
A------------------
D------------------

Outro
E-------------------------------
B-------------------------------
G--14--12--11--12--11--9--11--7-
D--x---x---x---x---x---x--x---x-
A--12--10--9---10--9---7--9---5-
D---------------------
strum each octave twice

End noises and feedback
Gtr. 1
E----------
B------7*--
G----7*----
D--7*------
A----------
D----------

Gtr. 2
E------------
B------------
G------------
D------------
A--5/9--9/5--
D------------

100% correct tabs are gnarly
Comments