Finch - What It Is To Burn Chords & Tabs

 

What It Is To Burn Chords & Tabs

Finch Chords & Tabs

Version: 2 Type: Bass Tab 0 ratings
1 star 2 stars 3 stars 4 stars 5 stars
comments

What It Is To Burn Bass Tab

Finch
What It Is To Burn                                


Bass
                                                             
F#||-------|------|------|------|------|------|------|------|
C#||*------|------|------|------|------|------|------|------|
G#||*------|------|------|------|------|------|------|------|
C#||-------|------|------|------|------|------|------|------|


                                                        
|---------------------------|--------------------------|
|*--------------------------|--------------------------|
|*--------------------------|--------------------------|
|---0--0--0--0--0--0--0--0--|--0--0--0--0--0--0--0--0--|


                                                      
--------------------------|--------------------------|
--------------------------|--------------------------|
--2--2--2--2--2--2--2--2--|--2--2--2--2--2--2--2--2--|
--------------------------|--------------------------|


                                                      
--------------------------|--------------------------|
--------------------------|--------------------------|
--0--0--0--0--0--0--0--0--|--0--0--0--0--0--0--0--0--|
--------------------------|--------------------------|


                                                        
--------------------------|---------------------------||
--------------------------|--------------------------*||
--------------------------|--------------------------*||
--5--5--5--5--5--5--5--5--|--5--5--5--5--5--5--5--5---||


                                                       
-------------------------||---------------------------|
-------------------------||*--------------------------|
-------------------------||*--------------------------|
--5--5--5--5--5--5--5----||---0--0--0--0--0--0--0--0--|


                                                      
--------------------------|--------------------------|
--------------------------|--------------------------|
--------------------------|--4--4--4--4--4--4--4--4--|
--0--0--0--0--0--0--0--0--|--------------------------|


                                                      
--------------------------|--------------------------|
--------------------------|--------------------------|
--4--4--4--4--4--4--4--4--|--------------------------|
--------------------------|--5--5--5--5--5--5--5--5--|


                                                      
--------------------------|--------------------------|
--------------------------|--------------------------|
--------------------------|--------------------------|
--5--5--5--5--5--5--5--5--|--5--5--5--5--5--5--5--5--|


                                                              
---------------------------||--------------------------|-----|
--------------------------*||--------------------------|-----|
--------------------------*||--------------------------|-----|
--5--5--5--5--5--5--5--5---||--7--7--7--7--7--7--7--7--|--7--|


                                                        
|---------------------------|--------------------------|
|*--------------------------|--------------------------|
|*--------------------------|--------------------------|
|---0--0--0--0--0--0--0--0--|--0--0--0--0--0--0--0--0--|


                                                      
--------------------------|--------------------------|
--------------------------|--------------------------|
--2--2--2--2--2--2--2--2--|--2--2--2--2--2--2--2--2--|
--------------------------|--------------------------|


                                                      
--------------------------|--------------------------|
--------------------------|--------------------------|
--------------------------|--------------------------|
--7--7--7--7--7--7--7--7--|--7--7--7--7--7--7--7--7--|


                                                        
--------------------------|---------------------------||
--------------------------|--------------------------*||
--------------------------|--------------------------*||
--5--5--5--5--5--5--5--5--|--5--5--5--5--5--5--5--5---||


                                                       
-------------------------||---------------------------|
-------------------------||*--------------------------|
-------------------------||*--------------------------|
--5--5--5--5--5--5--5----||---0--0--0--0--0--0--0--0--|


                                                      
--------------------------|--------------------------|
--------------------------|--------------------------|
--------------------------|--4--4--4--4--4--4--4--4--|
--0--0--0--0--0--0--0--0--|--------------------------|


                                                      
--------------------------|--------------------------|
--------------------------|--------------------------|
--4--4--4--4--4--4--4--4--|--------------------------|
--------------------------|--5--5--5--5--5--5--5--5--|


                                                      
--------------------------|--------------------------|
--------------------------|--------------------------|
--------------------------|--------------------------|
--5--5--5--5--5--5--5--5--|--5--5--5--5--5--5--5--5--|

[ Tab from: http://www.guitartabs.cc/tabs/f/finch/what_it_is_to_burn_btab_ver_2.html ]
                                                        
---------------------------||--------------------------|
--------------------------*||--------------------------|
--------------------------*||--------------------------|
--5--5--5--5--5--5--5--5---||--7--7--7--7--7--7--7--7--|


                                                        
--------------------------||---------------------------|
--------------------------||*--------------------------|
--------------------------||*--------------------------|
--7--7--7--7--7--7--7--7--||---0--0--0--0--0--0--0--0--|


                                                      
--------------------------|--------------------------|
--------------------------|--------------------------|
--------------------------|--2--2--2--2--2--2--2--2--|
--0--0--0--0--0--0--0--0--|--------------------------|


                                                      
--------------------------|--------------------------|
--------------------------|--------------------------|
--2--2--2--2--2--2--2--2--|--------------------------|
--------------------------|--7--7--7--7--7--7--7--7--|


                                                      
--------------------------|--------------------------|
--------------------------|--------------------------|
--------------------------|--------------------------|
--7--7--7--7--7--7--7--7--|--5--5--5--5--5--5--5--5--|


                                                                    
---------------------------||-------------------|------------------|
--------------------------*||-------------------|------------------|
--------------------------*||-------------------|------------------|
--5--5--5--5--5--5--5--5---||--5----------------|------------------|


                                                      
--------------------------|--------------------------|
--------------------------|--------------4--4--------|
--5--5--5--5--5--5--5--5--|--5--5--5--5--------5--5--|
--------------------------|--------------------------|


                                                      
--------------------------|--------------------------|
--------------------------|--------------------------|
--------------------------|--------------------------|
--4--4--4--4--4--4--4--4--|--4--4--4--4--5--5--7--7--|


                                                      
--------------------------|--------------------------|
--------------------------|--------------------------|
--------------------------|--------------------------|
--5--5--5--5--5--5--5--5--|--5--5--5--5--5--5--5--5--|


                                                      
--------------------------|--------------------------|
--------------------------|--------------------------|
--------------------------|--------------2--2--4--4--|
--7--7--7--7--7--7--7--7--|--7--7--7--7--------------|


                                                      
--------------------------|--------------------------|
--------------------------|--------------4--4--------|
--5--5--5--5--5--5--5--5--|--5--5--5--5--------5--5--|
--------------------------|--------------------------|


                                                      
--------------------------|--------------------------|
--------------------------|--------------------------|
--------------------------|--------------------------|
--4--4--4--4--4--4--4--4--|--4--4--4--4--5--5--7--7--|


                                                      
--------------------------|--------------------------|
--------------------------|--------------------------|
--------------------------|--------------------------|
--5--5--5--5--5--5--5--5--|--5--5--5--5--5--5--5--5--|


                                                                          
--------------------------|--------------------------|-------------------|
--------------------------|--------------------------|-------------------|
--------------------------|--------------------------|-------------------|
--7--7--7--7--7--7--7--7--|--7--7--7--7--7--7--7--7--|--7----------------|


                                                                           
------------------||---------------------------|--------------------------|
------------------||*--------------------------|--------------------------|
------------------||*--------------------------|--------------------------|
------------------||---0--0--0--0--0--0--0--0--|--0--0--0--0--0--0--0--0--|


                                                      
--------------------------|--------------------------|
--------------------------|--------------------------|
--2--2--2--2--2--2--2--2--|--2--2--2--2--2--2--2--2--|
--------------------------|--------------------------|


                                                      
--------------------------|--------------------------|
--------------------------|--------------------------|
--------------------------|--------------------------|
--7--7--7--7--7--7--7--7--|--7--7--7--7--7--7--7--7--|


                                                      3x                    
--------------------------|---------------------------||-------------------|
--------------------------|--------------------------*||-------------------|
--------------------------|--------------------------*||-------------------|
--5--5--5--5--5--5--5--5--|--5--5--5--5--5--5--5--5---||--0----------------|


                                                          
------------------|------------------|------------------||
------------------|------------------|------------------||
------------------|------------------|------------------||
------------------|------------------|------------------||
Comments