Finch - What It Is To Burn Acoustic Chords & Tabs

 

What It Is To Burn Acoustic Chords & Tabs

Finch Chords & Tabs

Version: 1 Type: Tab 0 ratings
1 star 2 stars 3 stars 4 stars 5 stars
comments

What It Is To Burn Acoustic Tab

what it is to Burn (acoustic)- Finch
Tabbed by- Michael fatass ging Gash

This is the acoustic version of the song What it is to Burn by the band Finch, 
and it is actually quite easy to play.

any corrections or question email me ghettoboby0@hotmail.com

Tuning- DADGBE

Intro is just just 6 mutes (scratches) in rhythm

Verse

|--------------------------------|
|--------------------------------|
|---------6-6-----6-6-----6-6----|
|-2-2-2p0-4-4-x-x-4-4-x-x-4-4-x-x| x2
|-2-2-2p0-0-0-x-x-0-0-x-x-0-0-x-x|
|-2-2-2p0-0-0-x-x-0-0-x-x-0-0-x-x|

[ Tab from: http://www.guitartabs.cc/tabs/f/finch/what_it_is_to_burn_acoustic_tab.html ]
|--------------------------------|
|--------------------------------|
|---------5-5-----5-5-----5-5----|
|-2-2-2p0-3-3-x-x-3-3-x-x-3-3-x-x| x2
|-2-2-2p0-0-0-x-x-0-0-x-x-0-0-x-x|
|-2-2-2p0-0-0-x-x-0-0-x-x-0-0-x-x|

Chorus

|----------|
|----------|
|4--6-----6|  listen to song for strumming pattern
|4--4--5--4|
|2--0--5--0|
|---0--5--0|

theres also a bridge-esque part but im not too sure how it goes,
but heres something of what i think it is

|-----------------------|
|-----------------------|
|---4/6-6/7-7/6---------|
|-0-x-x-x-x-x-x-5-5p4-4~| play this a couple times and then into chorus
|-0-2/4-4/5-5/4-0-0-0-0-|
|-0-------------0-0-0-0-|

and there you go, my first actual tab i completed.
kinda rusty but no one else made a tab for it.
Comments