Finch - What Is It To Burn Chords & Tabs

 

What Is It To Burn Chords & Tabs

Finch Chords & Tabs

Version: 1 Type: Bass Tab 0 ratings
1 star 2 stars 3 stars 4 stars 5 stars
comments

What Is It To Burn Bass Tab

   
chorus

g/--------------------------------------------------------------------|
d/--------------------------------------------------------------------|
a/--------------------------------------------------------------------|
e/0000000000000000-7777777777777777-5555555555555555-3333333333333333-|

g/--------------------------------------------------------------------|
d/--------------------------------------------------------------------|
a/--------------------------------------------------------------------|
e/0000000000000000-7777777777777777-5555555555555555-3333333333333333-|

riff 1

g/--------------------------------------------------------------|
d/--------------------------------------------------------------|
a/5(x16)--------------------------------------------------------|
e/-------------9(x16)------------3(x16)------------3(x16)-------|

g/--------------------------------------------------------------|
d/--------------------------------------------------------------|
a/5(x16)--------------------------------------------------------|
e/-------------9(x16)------------3(x16)------------5(x9)-------|

riff 2

g/--------------------------------------------------------------------|
d/--------------------------------------------------------------------|
a/--------------------------------------------------------------------|
e/0000000000000000-7777777777777777-5555555555555555-3333333333333333-|

g/--------------------------------------------------------------------|
d/--------------------------------------------------------------------|
a/--------------------------------------------------------------------|
e/0000000000000000-7777777777777777-5555555555555555-3333333333333333-|

riff 3

g/--------------------------------------------------------------|
d/--------------------------------------------------------------|
a/5(x16)--------------------------------------------------------|
e/-------------9(x16)------------3(x16)------------3(x16)-------|

g/--------------------------------------------------------------|
d/--------------------------------------------------------------|
a/5(x16)--------------------------------------------------------|
e/-------------9(x16)------------3(x16)------------3(x16)-------|

g/--------------------------------------------------------------|
d/--------------------------------------------------------------|
a/5(x16)--------------------------------------------------------|
e/-------------9(x16)------------3(x16)------------5(x9)-------|

riff 4
[ Tab from: http://www.guitartabs.cc/tabs/f/finch/what_is_it_to_burn_btab.html ]
g/--------------------------------------------------------------------|
d/--------------------------------------------------------------------|
a/--------------------------------------------------------------------|
e/0000000000000000-7777777777777777-5555555555555555-3333333333333333-|

g/--------------------------------------------------------------------|
d/--------------------------------------------------------------------|
a/--------------------------------------------------------------------|
e/0000000000000000-7777777777777777-5555555555555555-3333333333333333-|

riff 5

g/-----------------------------------------|
d/-----------------------------------------|
a/5----------------------------------------|
e/-------------2------------3------------5-|

g/-----------------------------------------|
d/-----------------------------------------|
a/5----------------------------------------|
e/-------------2------------3------------5-|

riff 6

g/-----------------------------------------------|
d/-----------------------------------------------|    
a/55555-----9-5----------------------------------| 
e/--------------22222222-33333333-55555----------|

g/-----------------------------------------------|
d/--------------------------------------7777-----|    
a/55555-----9-5----------------------------------| 
e/--------------22222222-33333333-55555----------|

riff 7

g/--------------------------------------------------------------------|
d/--------------------------------------------------------------------|
a/--------------------------------------------------------------------|
e/0000000000000000-7777777777777777-5555555555555555-3333333333333333-|

g/--------------------------------------------------------------------|
d/--------------------------------------------------------------------|
a/--------------------------------------------------------------------|
e/0000000000000000-7777777777777777-5555555555555555-3333333333333333-|

g/--------------------------------------------------------------------|
d/--------------------------------------------------------------------|
a/--------------------------------------------------------------------|
e/0000000000000000-7777777777777777-5555555555555555-3333333333333333-|

g/----------------------------------------------------------------------|
d/----------------------------------------------------------------------|
a/----------------------------------------------------------------------|
e/0000000000000000-7777777777777777-5555555555555555-3333333333333333-0-|
Comments