Finch - Three Simple Words Chords & Tabs

 

Three Simple Words Chords & Tabs

Finch Chords & Tabs

Version: 4 Type: Tab 0 ratings
1 star 2 stars 3 stars 4 stars 5 stars
comments

Three Simple Words Tab

Artist: Finch
Album:  What it is to burn
Title:  Three Simple Words



Db---------------------4xxxxxxx--2xxxxxxx-
Ab-4xxxxxxx--2xxxxxxx--4xxxxxxx--2xxxxxxx-
Db-6xxxxxxx--6xxxxxxx---------------------
Gb----------------------------------------   repeat
Bb----------------------------------------
eb----------------------------------------


Db---------------------4xxxxxxx--22222222-
Ab-4xxxxxxx--2xxxxxxx--4xxxxxxx--22222222-
Db-6xxxxxxx--6xxxxxxx---------------------
Gb----------------------------------------   
Bb----------------------------------------
eb----------------------------------------


Db---------------------44444444--22222222-
Ab-44444444--22222222--44444444--22222222-
Db-66666666--66666666---------------------
Gb----------------------------------------   repeat
Bb----------------------------------------
eb----------------------------------------

:verse
Db----------------------------------------
Ab-4xxx-4h6-4xxx4h6--2xxx-2h4-2xxx-2h4----
Db-6xxx-----4xxx-----4xxx-----4xxx--------
Gb----------------------------------------
Bb----------------------------------------
eb----------------------------------------

verse continued
Db-4xxx-4h6-4xxx-4h6--2222222-------------
Ab-4xxx-----4xxx------2222222-------------
Db----------------------------------------
Gb----------------------------------------
Bb----------------------------------------
eb----------------------------------------

:chorus
Db-------------------22222222-44444444----
Ab-00000000-44444444-22222222-44444444----
Db-22222222-66666666----------------------
Gb----------------------------------------   repeat
Bb----------------------------------------
eb----------------------------------------
[ Tab from: http://www.guitartabs.cc/tabs/f/finch/three_simple_words_tab_ver_4.html ]
:verse
Db----------------------------------------
Ab-4xxx-4h6-4xxx4h6--2xxx-2h4-2xxx-2h4----
Db-6xxx-----4xxx-----4xxx-----4xxx--------
Gb----------------------------------------
Bb----------------------------------------
eb----------------------------------------

verse continued
Db-4xxx-4h6-4xxx-4h6--2222222-------------
Ab-4xxx-----4xxx------2222222-------------
Db----------------------------------------
Gb----------------------------------------
Bb----------------------------------------
eb----------------------------------------

:chorus
Db-------------------22222222-44444444----
Ab-00000000-44444444-22222222-44444444----
Db-22222222-66666666----------------------
Gb----------------------------------------   repeat for a while
Bb----------------------------------------
eb----------------------------------------


Db----------------------------------------
Ab-4xxxxxxx4xxxxx4xxxx4-4-4-4-4-4-4-4-4---
Db-6xxxxxxx6xxxxx6xxxx6-6-6-6-6-6-6-6-6---
Gb----------------------------------------
Bb----------------------------------------
eb----------------------------------------


Db----------22-22----------22-22----------
Ab-44-44-44-22-22-00-00-00-22-22----------
Db-66-66-66-------22-22-22----------------
Gb----------------------------------------
Bb----------------------------------------
eb----------------------------------------


:chorus
Db-------------------22222222-44444444----
Ab-00000000-44444444-22222222-44444444----
Db-22222222-66666666----------------------
Gb----------------------------------------   repeat for a while
Bb----------------------------------------
eb----------------------------------------


:chorus
Db-------------------22222222-44444444----
Ab-00000000-44444444-22222222-44444444--0-
Db-22222222-66666666--------------------2-   letlast chord ring
Gb----------------------------------------   
Bb----------------------------------------
eb----------------------------------------
Comments