Finch - Three Simple Words Chords & Tabs

 

Three Simple Words Chords & Tabs

Finch Chords & Tabs

Version: 1 Type: Bass Tab 0 ratings
1 star 2 stars 3 stars 4 stars 5 stars
comments

Three Simple Words Bass Tab

Three Simple Words                                


Bass
                                                          
F#||--------------------------|--------------------------|
C#||*-------------------------|--------------------------|
G#||*--4----4--4--4--4--4--4--|--4--4--4--4--4--4--4--4--|
C#||--------------------------|--------------------------|


                                                                               
-------------------------|--------------------------|-------------------------|
-------------------------|--------------------------|-------------------------|
--2----2--2--2--2--2--2--|--2--2--2--2--2--2--2--2--|-------------------------|
-------------------------|--------------------------|--4----4--4--4--4--4--4--|


                                                     
--------------------------|-------------------------|
--------------------------|-------------------------|
--------------------------|-------------------------|
--4--4--4--4--4--4--4--4--|--2----2--2--2--2--2--2--|


                                                       
---------------------------||-------------------------|
--------------------------*||-------------------------|
--------------------------*||--2----2--2--2--2--2--2--|
--2--2--2--2--2--2--2--2---||-------------------------|


                                                                               
-------------------------|-------------------------|--------------------------|
-------------------------|-------------------------|--------------------------|
--2----2--2--2--2--2--2--|--4----4--4--4--4--4--4--|--4--4--4--4--4--4--4--4--|
-------------------------|-------------------------|--------------------------|


                                                                               
-------------------------|--------------------------|-------------------------|
-------------------------|--------------------------|-------------------------|
--2----2--2--2--2--2--2--|--2--2--2--2--2--2--2--2--|-------------------------|
-------------------------|--------------------------|--4----4--4--4--4--4--4--|


                                                                                
--------------------------|-------------------------|--------------------------|
--------------------------|-------------------------|--------------------------|
--------------------------|-------------------------|--------------------------|
--4--4--4--4--4--4--4--4--|--2----2--2--2--2--2--2--|--2--2--2--2--2--2--2--2--|


                                                       
|--------------------------|--------------------------|
|*-------------------------|--------------------------|
|*--4----4--4--4--4--4--4--|--4--4--4--4--4--4--4--4--|
|--------------------------|--------------------------|


                                                                               
-------------------------|--------------------------|-------------------------|
-------------------------|--------------------------|-------------------------|
--2----2--2--2--2--2--2--|--2--2--2--2--2--2--2--2--|-------------------------|
-------------------------|--------------------------|--4----4--4--4--4--4--4--|


                                                     
--------------------------|-------------------------|
--------------------------|-------------------------|
--------------------------|-------------------------|
--4--4--4--4--4--4--4--4--|--2----2--2--2--2--2--2--|


                                                                            
---------------------------||-----------------------|----------------------|
--------------------------*||*----------------------|----------------------|
--------------------------*||*----------------------|----------------------|
--2--2--2--2--2--2--2--2---||---7----7----7----7----|--7----7----7----7----|


                                                                     
----------------------|----------------------|----------------------|
----------------------|----------------------|----------------------|
--4----4----4----4----|--4----4----4----4----|----------------------|
----------------------|----------------------|--2----2----2----2----|

[ Tab from: http://www.guitartabs.cc/tabs/f/finch/three_simple_words_btab.html ]
                                                                       
----------------------|----------------------|-----------------------||
----------------------|----------------------|----------------------*||
----------------------|----------------------|----------------------*||
--2----2----2----2----|--4----4----4----4----|--4----4----4----4-----||


                                                                                
--------------------------|--------------------------|-------------------------|
*-------------------------|--------------------------|-------------------------|
*--4----4--4--4--4--4--4--|--4--4--4--4--4--4--4--4--|--2----2--2--2--2--2--2--|
--------------------------|--------------------------|-------------------------|


                                                                                
--------------------------|-------------------------|--------------------------|
--------------------------|-------------------------|--------------------------|
--2--2--2--2--2--2--2--2--|-------------------------|--------------------------|
--------------------------|--4----4--4--4--4--4--4--|--4--4--4--4--4--4--4--4--|


                                                                               
-------------------------|---------------------------||-----------------------|
-------------------------|--------------------------*||*----------------------|
-------------------------|--------------------------*||*----------------------|
--2----2--2--2--2--2--2--|--2--2--2--2--2--2--2--2---||---7----7----7----7----|


                                                                     
----------------------|----------------------|----------------------|
----------------------|----------------------|----------------------|
----------------------|--4----4----4----4----|--4----4----4----4----|
--7----7----7----7----|----------------------|----------------------|


                                                                     
----------------------|----------------------|----------------------|
----------------------|----------------------|----------------------|
----------------------|----------------------|----------------------|
--2----2----2----2----|--2----2----2----2----|--4----4----4----4----|


                       3x                                                
-----------------------||---------------------|----|--------------------|
----------------------*||*--------------------|----|--------------------|
----------------------*||*--4--4--------------|----|--4--4--------------|
--4----4----4----4-----||---------------------|----|--------------------|


                                                                               
-------||-----------------------|----------------------|----------------------|
------*||*----------------------|----------------------|----------------------|
------*||*--4--4----4--4--------|--4--4----4--4--------|--4--4----4--4--------|
-------||-----------------------|----------------------|----------------------|


                                                                                
-----------------------||---------------------------|--------------------------|
----------------------*||*--------------------------|--------------------------|
--4--4----4--4--------*||*--4--4--4--4--4--4--4--4--|--------------------------|
-----------------------||---------------------------|--2--2--2--2--2--2--2--2--|


                                                      3x                        
--------------------------|---------------------------||-----------------------|
--------------------------|--------------------------*||*----------------------|
--------------------------|--------------------------*||*----------------------|
--7--7--7--7--7--7--7--7--|--2--2--2--2--2--2--2--2---||---7----7----7----7----|


                                                                     
----------------------|----------------------|----------------------|
----------------------|----------------------|----------------------|
----------------------|--4----4----4----4----|--4----4----4----4----|
--7----7----7----7----|----------------------|----------------------|


                                                                     
----------------------|----------------------|----------------------|
----------------------|----------------------|----------------------|
----------------------|----------------------|----------------------|
--2----2----2----2----|--2----2----2----2----|--4----4----4----4----|


                       3x                                        
-----------------------||-------------------|------------------||
----------------------*||-------------------|------------------||
----------------------*||-------------------|------------------||
--4----4----4----4-----||--7----------------|------------------||
Comments