Finch - Stay With Me Chords & Tabs

 

Stay With Me Chords & Tabs

Finch Chords & Tabs

Version: 3 Type: Tab

Stay With Me Tab

Ok Finch  rule so much but I just really wanted to tab this song out
with the 2 guitars!!

listen to song for the rythm I am just given you the basic idea here!!

Key:

/ slide
~ let ring
h hammer on
p pull-off
pm...  palm mute

-------------
left channel
-------------

Intro/Chorus x2
----------------------------------------------------------------------------|
----------------------------------------------------------------------------|
----------------------------------------------------------------------------|
--9-9-9-9-------------9-9-9-9-----------6-6-6-6--------6-6-6-6--------------|
--9-9-9-9-------------9-9-9-9-----------6-6-6-6--------6-6-6-6--------------|
--9-9-9-9-------------9-9-9-9-----------6-6-6-6--------6-6-6-6--------------|

End Intro/Chorus
----
----
----
-2~-
-2~-
-2~-

Verse x2
----------------------------------------------------------------------------|
----------------------------------------------------------------------------|
----------------------------------------------------------------------------|
--9999999999999/2222222222222/999999999999/66666666666/444444444444---------|
--9999999999999/2222222222222/999999999999/66666666666/444444444444---------|
--9999999999999/2222222222222/999999999999/66666666666/444444444444---------|
pm..........................................................................

Pre-Chorus x1
----------------------------------------------------------------------------|
----------------------------------------------------------------------------|
----------------------------------------------------------------------------|
--2~----------------2~---------------2~----------------2~-------------------|
--2~----------------2~---------------2~----------------2~-------------------|
--2~----------------2~---------------2~----------------2~-------------------|

[Chorus] x2

[End Intro/Chorus] x1

[Verse] x2

[Pre-Chorus] x1

[Chorus] x2

Bridge part 1 x2
----------------------------------------------------------------------------|
----------------------------------------------------------------------------|
----------------------------------------------------------------------------|
--9-9-9-9-9-9-9-9-11-11-11-11-11-11-11-14-14-14-14-14-14-14-----------------|
--9-9-9-9-9-9-9-9-11-11-11-11-11-11-11-14-14-14-14-14-14-14-----------------|
--9-9-9-9-9-9-9-9-11-11-11-11-11-11-11-14-14-14-14-14-14-14-----------------|


----------------------------------------------------------------------------|
----------------------------------------------------------------------------|
----------------------------------------------------------------------------|
--6-6-6-6-6-6-6-6-4-4-4-4-4-4-4-4-4-4-2-2-2-2-2-2-2-2-----------------------|
--6-6-6-6-6-6-6-6-4-4-4-4-4-4-4-4-4-4-2-2-2-2-2-2-2-2-----------------------|
--6-6-6-6-6-6-6-6-4-4-4-4-4-4-4-4-4-4-2-2-2-2-2-2-2-2-----------------------|


part 2
----------------------------------------------------------------------------|
----------------------------------------------------------------------------|
----------------------------------------------------------------------------|
---2~-----------------------------------2~----------------------------------|
---2~-----------------------------------2~----------------------------------|
---2~-----------------------------------2~----------------------------------|

part 3 (follow da other guitar here)
----------------------------------------------------------------------------|
---0-0~-------------------0-0~----------------------------------------------|
--4-4--------------------4-4------------------------------------------------|
----------------------------------------------------------------------------|
----------------------------------------------------------------------------|
----------------------------------------------------------------------------|

[part 1] (with palm mutes)


[Chorus]x2

[part 1] (till end)

-------------
Right Channel
-------------
[ Tab from: http://www.guitartabs.cc/tabs/f/finch/stay_with_me_tab_ver_3.html ]
Intro/Chorus x2
------------------------------------------------------------------------------|
------------------------------------------------------------------------------|
----------11-11-11h13p11----------11-11-11-11h13p11---------11-11-11-11h13p11-|
--9-9-9-9-----------------9-9-9-9-------------------6-6-6-6-------------------|
--9-9-9-9-----------------9-9-9-9-------------------6-6-6-6-------------------|
--9-9-9-9-----------------9-9-9-9-------------------6-6-6-6-------------------|

--------------------------|
--------------------------|
--------11-11-11-11h13p11-|
6-6-6-6-------------------|
6-6-6-6-------------------|
6-6-6-6-------------------|

Verse x2
----------------------------------------------------------------------------|
----------------------------------------------------------------------------|
----------------------------------------------------------------------------|
--9999999999999/2222222222222/999999999999/66666666666/444444444444---------|
--9999999999999/2222222222222/999999999999/66666666666/444444444444---------|
--9999999999999/2222222222222/999999999999/66666666666/444444444444---------|
pm..........................................................................

Pre-Chorus x1
----------------------------------------------------------------------------|
----------------------------------------------------------------------------|
-----44444433333333---44444433333333---44444433333333----44444433333333-----|
--2~----------------2~---------------2~----------------2~-------------------|
--2~----------------2~---------------2~----------------2~-------------------|
--2~----------------2~---------------2~----------------2~-------------------|

[Chorus] x2

[Verse] x2

[Pre-Chorus] x1

[Chorus] x2


Bridge part 1 x2
----------------------------------------------------------------------------|
----------------------------------------------------------------------------|
----------------------------------------------------------------------------|
--9-9-9-9-9-9-9-9-11-11-11-11-11-11-11-14-14-14-14-14-14-14-----------------|
--9-9-9-9-9-9-9-9-11-11-11-11-11-11-11-14-14-14-14-14-14-14-----------------|
--9-9-9-9-9-9-9-9-11-11-11-11-11-11-11-14-14-14-14-14-14-14-----------------|


----------------------------------------------------------------------------|
----------------------------------------------------------------------------|
----------------------------------------------------------------------------|
--6-6-6-6-6-6-6-6-4-4-4-4-4-4-4-4-4-4-2-2-2-2-2-2-2-2-----------------------|
--6-6-6-6-6-6-6-6-4-4-4-4-4-4-4-4-4-4-2-2-2-2-2-2-2-2-----------------------|
--6-6-6-6-6-6-6-6-4-4-4-4-4-4-4-4-4-4-2-2-2-2-2-2-2-2-----------------------|

part 2
----------------------------------------------------------------------------|
----------------------------------------------------------------------------|
----------------------------------------------------------------------------|
---2~-----------------------------------2~----------------------------------|
---2~-----------------------------------2~----------------------------------|
---2~-----------------------------------2~----------------------------------|

part 3 x2
----------------------------------------------------------------------------|
---0-0-0-0-0-0-0-0-0-0-0-0-0-0-0-0-0-0-0-0----------------------------------|
--4-4-4-4-4-3-3-3-3-3-6-6-6-6-6-4-4-4-4-4-----------------------------------|
----------------------------------------------------------------------------|
----------------------------------------------------------------------------|
----------------------------------------------------------------------------|

part 3 x2 (contuined) (when lyrics come in)
-----------------------------------------------------------------------------|
---0-0-0-0-0-0-0-0-0-0-0-0-0-0-0-0-0-0-0-0-0-0-0-0-0-0-0-0-0-0-0-0-0-0-0-0-0-|
--4-4-4-4-4-6-6-6-6-6-9-9-9-9-9-8-8-8-8-8-4-4-4-4-4-4-3-3-3-3-3-6-6-6-4-4-4--|
-----------------------------------------------------------------------------|
-----------------------------------------------------------------------------|
-----------------------------------------------------------------------------|

Chorus (with no notes) x2
----------------------------------------------------------------------------|
----------------------------------------------------------------------------|
----------------------------------------------------------------------------|
--9-9-9-9-------------9-9-9-9-----------6-6-6-6--------6-6-6-6--------------|
--9-9-9-9-------------9-9-9-9-----------6-6-6-6--------6-6-6-6--------------|
--9-9-9-9-------------9-9-9-9-----------6-6-6-6--------6-6-6-6--------------|


[part 1] x2