Finch - Stay With Me Chords & Tabs

 

Stay With Me Chords & Tabs

Finch Chords & Tabs

Version: 1 Type: Tab 0 ratings
1 star 2 stars 3 stars 4 stars 5 stars
comments

Stay With Me Tab

Artist: Finch
Song: Stay with me
Album: What it is to burn
Tuning: drop the E string to D. Tune guitar down ½ step This tab is perfect.
If you don’t think this tab is right, 
Either you can’t read tab, or you don’t have ears.

Intro(after drums-use distortion) Riff 1
eb------------------------------------------------------------
Bb------------------------------------------------------------
Gb-----------------6--6-6-6-6-8-6---------------6--6-6-6-6-8-6
db-----9-9--9-9----8--8-8-8-8-8-8—--9-9--9-9----8--8-8-8-8-8-8
Ab-----9-9--9-9---------------------9-9--9-9------------------
Db-----9-9--9-9---------------------9-9--9-9------------------


Intro (cont.)  Riff 1               
eb------------------------------------------------------------]
Bb------------------------------------------------------------]     
Gb-----------------6--6-6-6-6-8-6---------------6--6-6-6-6-8-6]
db-----6-6--6-6----8--8-8-8-8-8-8—--6-6--6-6----8--8-8-8-8-8-8]
Ab-----6-6--6-6---------------------6-6--6-6------------------]
Db-----6-6--6-6---------------------6-6--6-6------------------]

eb---
Bb---                     repeat both lines of intro twice and 
Gb---                     end with the little ending to the left.
db--2                          
Ab--2
Db--2


Verse                                            Riff 2
eb--------------------------------------------------------]
Bb--------------------------------------------------------]
Gb--------------------------------------------------------]
db---(9)-----------(2)------------(9)------(6)------(4)---]
Ab---(9)abt.16x----(2)16x again---(9)16x---(6)8x----(4)8x-]
Db---(9)-----------(2)------------(9)------(6)------(4)---]
Repeat verse twice and end with
                                                 Riff 3    
eb--------------------------------------------------------
Bb--------------------------------------------------------
Gb----------4-4-4-4-4-3----------4—4-4-4-4-3--------------
db---2—-2-2--------------2-2-2-2--------------------------
Ab---2—-2-2--------------2-2-2-2--------------------------
Db---2—-2-2--------------2-2-2-2--------------------------
(Rough power chord strumming shown. It is flexible though.)
Repeat above (Riff 3) two times after playing verse twice.

Chorus   (same as intro)                          Riff 1
eb------------------------------------------------------------
Bb------------------------------------------------------------
Gb-----------------6--6-6-6-6-8-6---------------6--6-6-6-6-8-6
db-----9-9--9-9----8--8-8-8-8-8-8—--9-9--9-9----8--8-8-8-8-8-8
Ab-----9-9--9-9---------------------9-9--9-9------------------
Db-----9-9--9-9---------------------9-9--9-9------------------


Chorus (cont.)  Riff 1               
eb------------------------------------------------------------]
Bb------------------------------------------------------------]      
Gb-----------------6--6-6-6-6-8-6---------------6--6-6-6-6-8-6]
db-----6-6--6-6----8--8-8-8-8-8-8—--6-6--6-6----8--8-8-8-8-8-8]
Ab-----6-6--6-6---------------------6-6--6-6------------------]
Db-----6-6--6-6---------------------6-6--6-6------------------]


•	Repeat Chorus (riff 1) twice 

•	Play verse again (riff 2 twice)&(riff 3 twice)

•	Play Chorus (riff 1) twice again


[ Tab from: http://www.guitartabs.cc/tabs/f/finch/stay_with_me_tab.html ]
Bridge part 1    (where he goes “whooooooaaaaaa”)
eb------------------------------------------------------
Bb------------------------------------------------------
Gb------------------------------------------------------
db---(9)------------(6)---------------------------------
Ab---(9)-abt.20x----(6)-20x-----------------------------
Db---(9)------------(6)---------------------------------
                                             Repeat 2x

End with

eb------------------------------------------------------
Bb------------------------------------------------------
Gb------------------------------------------------------
db------2---------------------------------2-------------
Ab------2-----------let ring--------------2-------------
Db------2---------------------------------2-------------


Bridge part 2  (no distortion)

eb------------------------------------
Bb----0-0-0-0-0-0-0-0-0-0-0-0-0-0-0-0-
Gb---4-4-4-4-3-3-3-3-6-6-6-6-4-4-4-4--       Repeat 2x with
Db------------------------------------    no pause between
Ab------------------------------------  the repetitions
db------------------------------------ 


... stay with me…    cigarettes* and open air hand in hand
eb-----------------------------------------------------------------
Bb--0-0-0-0-0-0-0-0-0-0-0-0-0-0-0-0-0-0-0-0-0-0-0-0-0-0-0-0-0-0-0--
Gb-4-4-4-4-6-6-6-6-9-9-9-9-8-8-8-8-4-4-4-4-3-3-3-3-6-6-6-6-4-4-4-4-
db-----------------------------------------------------------------
Ab-----------------------------------------------------------------
Db-----------------------------------------------------------------
                                                Repeat this thing
                                                 Right above 2x

Bridge part 3 (distortion back on)

eb-----------------------------------------------------
Bb-----------------------------------------------------
Gb-----------------------------------------------------
db---9—9—9----9—9—9-----------6—6—6----6—6—6-----------
Ab---9—9—9----9—9—9-----------6—6—6----6—6—6-----------
Db---9—9-9----9—9—9-----------6—6—6----6—6—6-----------
                                            Repeat 2x

Last chorus thing

eb--------------------------------------------------------
Bb--------------------------------------------------------
Gb--------------------------------------------------------
db--(9)----(11)-----(14)---------(6)------(4)-----(2)-----
Ab--(9)8x--(11)-8x--(14)-16x-----(6)-8x---(4)-8x—-(2)-16x-
Db—-(9)----(11)-----(14)---------(6)------(4)-----(2)-----
                                            Repeat 2x then                                            
Eb-----------------------
Bb-----------------------
Gb-----------------------         
db---(9)----(11)-----(14)        Let Ring
Ab---(9)-8x—(11)-8x—-(14)
Db---(9)----(11)-----(14)

"Stay With Me"

once again your eyes make it hard to say goodbye 
so i'll just keep driving 
where do you wanna go? 
it doesn't really matter as long as you are here with me 
with me 
with me 

whoa, there's something in the air tonight 
something that makes me feel alive and i say 
whoa, what were the words that you said to me 
that made me feel so special now 

once again your eyes make it hard to ask you why 
so i sit here knuckles tight 
hands against the wheel 
your head against the glass and you mean so much to me 
to me 
to me 

whoa, there's something in the air tonight 
something that makes me feel alive and i say 
whoa, what were the words that you said to me 
that made me feel so special now 

whoa (stay with me) 
whoa (stay with me) 
whoa (stay with me) 
whoa (stay) 
stay with me 
cigarettes* and open air, hand in hand 
i said stay with me 
cuz every star that i see is brighter than the last 
so stay with me



*Cigarettes are gay so you can use “sittin in the open air” instead of cigarettes
and open air.hehehehe


This is a good song to sing for your girl when your driving in the car. 

-Rich-
Comments