Finch - Perfection Through Silence Chords & Tabs

 

Perfection Through Silence Chords & Tabs

Finch Chords & Tabs

Version: 1 Type: Tab 0 ratings
1 star 2 stars 3 stars 4 stars 5 stars
comments

Perfection Through Silence Tab

   
Perfection through silence 

Tabbed by Tom Stead

Such a brilliant tune to play. Alot of Finch songs are in drop-d, 
but i'm pretty sure this ones in normal tuning.


Intro/chorus 

E----------------------------
B----------------------------
G-8-------5------------------
D-8-(X16)-5-(X16)-5-(x16)-6-(x16)     X2
A-6-------3-------5-------6--
E-6-------3-------3-------4--


Verse 
[ Tab from: http://www.guitartabs.cc/tabs/f/finch/perfection_through_silence_tab.html ]
E---------------------------
B---------------------------
G-5-----8-----------8-----7-
D-5(X5)-8(X5)-8(X5)-8(X3)-7(X2)      X2
A-3-----6-----6-----6-----5-
E-3-----6-----6-----6-----5-


Interlude

E---------- -----------------------
B---------- -----------------------
G---5------ ---5-----6-----------8-
D---5(x8)-- ---5(X8)-6(X8)-6(x8)-8(X8)              X2
A---3------ ---3-----4-----4-----6-
E---3------ ---3-----4-----4-----6-
 (p.m)
Riff 1			Riff2

Sructure

Intro x2
Verse x2
Chorus x2
Verse x2
Chorus x2
Interlude - Riff 1 (x1)
	    Riff 2 (x2)
Chorus x4
Comments