Finch - New Kid Chords & Tabs

 

New Kid Chords & Tabs

Finch Chords & Tabs

Version: 2 Type: Tab 0 ratings
1 star 2 stars 3 stars 4 stars 5 stars
comments

New Kid Tab

   
FINCH
THE NEW KID
 
     
Drop D

b = bend	
h = hammer 
p = pull off 	
~ = let ring 
/ = slide


Intro(Guitar 1)

e------------------------------------------------------------------------
b------------------------------------------------------------------------
g--10-101010-1010-10-11-11111111-10-101010-1010-10-11-111111-1111-11--6~- 
d---x--x-x-x--x-x--x--x--x-x-x-x--x--x-x-x--x-x--x--x--x-x-x--x-x--x--x--
a---8--8-8-8--8-8--8/-9--9-9-9-9\-8--8-8-8--8-8--8/-9--9-9-9--9-9--9\-4~-
d------------------------------------------------------------------------
                                          
e------------------------------------------------------------------------
b------------------------------------------------------------------------
g--10-101010-1010-10-11-11111111-10-101010-1010-10-11-111111-1111-11--6~- 
d---x--x-x-x--x-x--x--x--x-x-x-x--x--x-x-x--x-x--x--x--x-x-x--x-x--x--4~-
a---8--8-8-8--8-8--8/-9--9-9-9-9\-8--8-8-8--8-8--8/-9--9-9-9--9-9--9\-4~-
d---------------------------------------------------------------------4~-

e------------------------------------
b------------------------------------ 
g---5--5-6/-x------------------------ 
d---x--x-x---------------------------
a---3--3-4/-x------------------------
d------------------------------------

[ Tab from: http://www.guitartabs.cc/tabs/f/finch/new_kid_tab_ver_2.html ]
Chorus  (x2)
guitar 1
e------------------------------------------------------------------------
b------------------------------------------------------------------------
g--10-101010-1010-10-11-11111111-10-101010-1010-10-11-111111-1111-11--6~- 
d---x--x-x-x--x-x--x--x--x-x-x-x--x--x-x-x--x-x--x--x--x-x-x--x-x--x--4~-
a---8--8-8-8--8-8--8/-9--9-9-9-9\-8--8-8-8--8-8--8/-9--9-9-9--9-9--9\-4~-
d---------------------------------------------------------------------4~-
                    
 at the same time (guitar 1 and 2):                                     
e------------------------------------  
b------------------------------------
g---5--5-6-13------------------------ guitar 1 
d---x--x-x---------------------------
a---3--3-4/11------------------------
d------------------------------------
  
e------------------------------------
b------------------------------------
g---6-5----6-5-----------------------  guitar 2
d-------6------6---------------------
a------------------------------------
d------------------------------------




Verse (guitar 1 or 2)
e----------------------------------------------------------------------------
b----------------------------------------------------------------------------
g--10~ --10/6----------8----------6---6--6/13--10--10-13(x 15) gradually bend
d--------------------6----6--------------------------------------------------
a--------------4---4--------4---4---4----------------------------------------
d----------------------------------------------------------------------------


Chorus x2
Verse
Chorus x2


Bridge

e------------------------------------                         !   
b------------------------------------                         ! 
g--11--------------------------------  guitar 1               !  
d---x- (x 30) -------------------------                       !      
a---9--------------------------------                         !      
d------------------------------------                         !        
                                                              !  x2
e------------------------------------------------             !    
b------------------------------------------------             !       
g---6-5----6-5----6-5-6-6h8p6-5-----5-5h6p5------  guitar 2   !        
d-------6------6----------------6------------6---             !   
a------------------------------------------------             !  
d------------------------------------------------             !       

 guitar 1 or 2
e--13----------------------------------------13-----13-----------------------
b-----12----------------------------------------12-----12--------------------
g-----------------8--------8-------------------------------------------8---8-
d---------------6--------6----6--------------------------------------6-----6-
a-------9h11--4--------4--------4---------------------------9h11---4-------4-
d----------------------------------------------------------------------------


Chorus x 4

  that's all!!!!!
Comments