Finch - New Beginnings Chords & Tabs

 

New Beginnings Chords & Tabs

Finch Chords & Tabs

Version: 5 Type: Tab 0 ratings
1 star 2 stars 3 stars 4 stars 5 stars
comments

New Beginnings Tab

   
Tuning: Db Ab Db Gb Bb Eb

Here's everything you need to play this song, im pretty sure its right.

Intro
Eb---------------------------------------------------------------|
Bb----------1------1---------------------------------------------|
Gb---------------------------------------------------------------|
Db------3------3-------------------------------------------------| x2
Ab---1-----------------0-----------------------------------------|
Db---------------------------------------------------------------|

Main Riff and Chorus
Eb---------------------------------------------------------------|
Bb---------------------------------------------------------------|
Gb-------------------------10\9--9-------------------------------|
Db---88--10-10-10---000----x-\x--x-------------------------------|
Ab---88--8--8--8----000----8-\7--7-------------------------------|
Db---88--8--8--8----000----0-\0--0-------------------------------|
[ Tab from: http://www.guitartabs.cc/tabs/f/finch/new_beginnings_tab_ver_5.html ]
Verse (palm mute everything here)
Eb---------------------------------------------------------------|
Bb---------------------------------------------------------------|
Gb---------------------------------------------------------------|
Db---10-10-10-10-10-10-10-10-----7-7-7-7-7-7-7-7-7-7-7-7-7-------|
Ab---10-10-10-10-10-10-10-10-----7-7-7-7-7-7-7-7-7-7-7-7-7-------|
Db---10-10-10-10-10-10-10-10-----7-7-7-7-7-7-7-7-7-7-7-7-7-------|

Bridge
Eb---------------------------------------------------------------|
Bb---------------------------------------------------------------|
Gb------------333333---------------------------------------------|
Db---555555---333333----33333333333------------------------------|
Ab---555555---111111----33333333333------------------------------|
Db---555555-------------33333333333------------------------------|

Softer part
Eb----------------------------------------------------------------|
Bb---1----------1-------------------------------------------------|
Gb---3----------3-------------10\9--9-----------------------------|
Db---3----0-----3---0---------x-\x--x-----------------------------|
Ab--------0---------0---------8-\7--7-----------------------------|
Db--------0---------0---------------------------------------------|
Comments