Finch - New Beginnings Chords & Tabs

 

New Beginnings Chords & Tabs

Finch Chords & Tabs

Version: 4 Type: Tab 0 ratings
1 star 2 stars 3 stars 4 stars 5 stars
comments

New Beginnings Tab

   
Band - Finch
Song - New Beginnings
Album - What it is to Burn
Tuning - Drop D

Nobody else has tabbed this right so I will.

Intro

e:---------|
b:---------|      Some sort of effects aswell, maybe flange or wah???
g:---------|      Not to sure about the Intro definate Volume Swell.
d:---2--1^-|      Repeat how many times needed.
a:-0--2----|
D:---------|

Chorus riff after intro

e:-------------------------------|
b:-------------------------------|
g:-----------------6-6-6/9/8-8-8-| Repeat as many times needed
d:-7-7-7-7-7-7-7-7-6-6-6/x/x-x-x-|
a:-7-7-7-7-7-7-7-7-4-4-4/7/6-6-6-|
D:-7-7-7-7-7-7-7-7---------------|

Verse
[ Tab from: http://www.guitartabs.cc/tabs/f/finch/new_beginnings_tab_ver_4.html ]
"I called on the phone..."
e:--------------|
b:--------------|
g:--------6-----|
d:-2------6-x24-| Reapeat 3 times???
a:-2-x24--4-----|
D:-2------------|

Chorus 
 "But did you wanna listen.."
e:-------------------------------|
b:-------------------------------|
g:-----------------6-6-6/9/8-8-8-|
d:-7-7-7-7-7-7-7-7-6-6-6/x/x-x-x-|
a:-7-7-7-7-7-7-7-7-4-4-4/7/6-6-6-|
D:-7-7-7-7-7-7-7-7---------------|

Bridge 

e:------------------------------------------------|
b:------------------------------------------------|
g:------------------------------------------9-----|
d:-4-4-4-4-4-4/7-7-7-7-7-7/2----------------x-x12-|
a:-4-4-4-4-4-4/7-7-7-7-7-7/2--x24--ends on--7-----|
D:-4-4-4-4-4-4/7-7-7-7-7-7/2----------------------|

Back to chorus
Think thats everything.
Comments