Finch - New Beginning Chords & Tabs

 

New Beginning Chords & Tabs

Finch Chords & Tabs

Version: 1 Type: Tab 0 ratings
1 star 2 stars 3 stars 4 stars 5 stars
comments

New Beginning Tab

Hello fellow finch lovers...this is what i figured out myself so its probably 
not 100% correct but i think it sounds good.

Drop D tuning

Intro Part 1
|--------------
|--------------
|--------------
|---10-10------ Do this a few times then the second part comes in.
|--8--8--8-----
|-8-------0~---

Intro Part 2
|---------------------------------------
|---------------------------------------
|-------------16-16-16-16-14-14-14-14-14
|----10-10----x--x--x--x--x--x--x--x--x-
|-8-8--8--0~--14-14-14-14-12-12-12-12-12
|-8-8--8--0~----------------------------
[ Tab from: http://www.guitartabs.cc/tabs/f/finch/new_beginning_tab.html ]
Verse(Palm Muted)
|-------------------------------
|-------------------------------
|-------------------------------
|-------------------------------
|-3---------------0-------------
|-3-x16-----------0-x16---------
  
  Hand me down    Spread across 
  to photographs  the floor

The chorus is the same as the Intro Part 2

Break Part 1
|
|
|
|
|-5-5-5-5-5-5-8-8-8-8-8-8-0
|-5-5-5-5-5-5-8-8-8-8-8-8-0-x16(Palm Mute the open chord)
  Well i tried............So hard to figure out

Break Part 2 (Strum Chords lightly)
|----------------------------------------------------------
|----------------------------------------------------------
|--------------------------------16-16-16-16-14-14-14-14-14
|-10----------------0------------x--x--x--x--x--x--x--x--x-
|-8-----------------0------------14-14-14-14-12-12-12-12-12
|-8-----------------0--------------------------------------
  But did you wanna listen....   WHATS LEFT FOR ME?

Im not sure about the ending chords ill put them on when i figure them out.

Thank you!


Comments