Finch - Letters To You Chords & Tabs

 

Letters To You Chords & Tabs

Finch Chords & Tabs

Version: 7 Type: Tab 0 ratings
1 star 2 stars 3 stars 4 stars 5 stars
comments

Letters To You Tab

   
-------------------------------------------------------------------------------
			    Finch - Letters To You
-------------------------------------------------------------------------------

Artist: Finch
Title: Letters To You
Album: uknow
Transcribed by:^®§©^ Roberto Solis
Email: RsC_62910213@hotmail.com
Tuning: Drop D

Intro  *no estoy seguro de esta parte* 
e|-------------------|
B|-------------------|
G|-66666666666666666-|
D|-66666666666666666-|
A|-44444444444444444-|
D|-------------------|
*********************************************
Verso                                       
e|-------------------------------------|x2
B|-------------------------------------|
G|-66666666----------------------------|
D|-4444444433333333/44444444/666666666-|
A|-4444444433333333/44444444/666666666-|
D|---------33333333/44444444/666666666-|

>Verso 2nd Guitar Riff<
e|-------------------| x6
B|-------------------|
G|--6-5--6-5/8-------|
D|-6----6------------|
A|-------------------|
D|-------------------|
**********************************************
Pre-Chorus *1* (Esta es una manera de como tocar el Pre-Chorus)
e|--------------------------------------------------|x2
B|--------------------------------------------------|
G|-10X10X10X10XX11X11X11X11X1111----6-6-6-6-6-6-6-6-|
D|-10X10X10X10XX11X11X11X11X1111----6-6-6-6-6-6-6-6-|
A|--8X-8X-8X-8XX-9X-9X-9X-9X-9-9----4-4-4-4-4-4-4-4-|
D|--------------------------------------------------|

Chorus
e|----------------------------------------------------------------------|x2
B|----------------------------------------------------------------------|
G|--------------------666666----------------------------666666----------|
D|-888888888/44444444-666666-33333333/88888888/44444444-666666-33333333-|
A|-888888888/44444444-444444-33333333/88888888/44444444-444444-33333333-|
D|-888888888/44444444--------33333333/88888888/44444444--------33333333-|

>INTRO< x1

>VERSO< x2

Pre-Chorus *2* (esta es otra forma de tocar el pre-chorus ("escoge la ke mas te guste"))  
e|---------------------------------------| x2
B|---------------------------------------|
G|------------------------6-6-6-6-6-6-6--|
D|-3X3X3X3XX4X4X4X4X4X44--6-6-6-6-6-6-6--|
A|-3X3X3X3XX4X4X4X4X4X44--4-4-4-4-4-4-4--|
D|-3X3X3X3XX4X4X4X4X4X44-----------------|
[ Tab from: http://www.guitartabs.cc/tabs/f/finch/letters_to_you_tab_ver_7.html ]
>Chorus x4<
**********************************************************************************
>Interlude<
e|---------------------------------------------|
B|---------------------------------------------|
G|-6X-6X-6X-6X--6666666666666666666666666666->-|
D|-6X-6X-6X-6X--6666666666666666666666666666->-|
A|-4X-4X-4X-4X--4444444444444444444444444444->-|
D|---------------------------------------------|

               >Interlude >2nd Guitar Riff<<
>>>>>>>>>>>>>> e|--------------------------------------------------------------------------------|
>>>>>>>>>>>>>> B|--------------------------------------------------------------------------------|
>>>>>>>>>>>>>> G|-6-5-6-8-6-5--6-5-6-8-6-5--6-5-6-8-6-666666/10-10-10-10-10-10/11-11-11-11-11-11-|
>>>>>>>>>>>>>> D|-6-6-6-6-6-6--6-6-6-6-6-6--6-6-6-6-6-666666/10-10-10-10-10-10/11-11-11-11-11-11-|
>>>>>>>>>>>>>> A|--------------------------------------------------------------------------------|
>>>>>>>>>>>>>> D|--------------------------------------------------------------------------------|
***********************************************************************************

Chorus -Clean-
e|------------------------------------|x1
B|------------------------------------|
G|--------------------666666----------|
D|-888888888/44444444-666666-33333333-|
A|-888888888/44444444-444444-33333333-|
D|-888888888/44444444--------33333333-|


Chorus                           (x5)+++
e|-----------------------------------+++-----------------------------------|
B|-----------------------------------+++-----------------------------------|
G|--------------------666666---------+++------------------666666-----------|
D|-888888888/44444444-666666-33333333+/+88888888/44444444-666666-33333333--|
A|-888888888/44444444-444444-33333333+/+88888888/44444444-444444-33333333--|
D|-888888888/44444444--------33333333+/+88888888/44444444--------33333333--|
                                     +++  

*************************************************************
END >>>>>Intro 
e|-------------------|
B|-------------------|
G|-66666666666666666-|
D|-66666666666666666-|
A|-44444444444444444-|
D|-------------------|

END >>>>>>2nd Guitar ¡strum the chords!<
e|----------------------|
B|----------------------|
G|----------------------|
D|-11-11-11-11-11-11-11-|
A|-11-11-11-11-11-11-11-|
D|--9--9--9--9--9--9--9-|
**************************************************************

si tienes alguna aclaracion, comentario o duda> me podras encontrar en
ICQ: 62910213 O MANDAME un e-mail a: RsC_62910213@HOTMAIL.COM 
Comments