Finch - Letters To You Chords & Tabs

 

Letters To You Chords & Tabs

Finch Chords & Tabs

Version: 5 Type: Tab 3 ratings
1 star 2 stars 3 stars 4 stars 5 stars
comments

Letters To You Tab

e|------------------------------------------------|
b|------------------------------------------------|
g|------------------------------------------------|
d|---0----4----5----7-----------------------------|
a|---0-x8-4-x8-5-x8-7-x8--------------------------|
d|---0----4----5----7-----------------------------|

can you see that i wanna be there with open arms......etc

Pre Chorus

|------------------------------------------------|
|------------------------------------------------|
|------------------------------------------------|
|---4-4-4--5-5-5---0-0-0-0-0-0-0-----------------|
|---4-4-4--5-5-5---0-0-0-0-0-0-0-----------------|
|---4-4-4--5-5-5---0-0-0-0-0-0-0-----------------|

listen to song for patten kinda mutes n plays
[ Tab from: http://www.guitartabs.cc/tabs/f/finch/letters_to_you_tab_ver_5.html ]
do you notice im gone..were do you run to so far ..etc

Chorus

|------------------------------------------------|
|------------------------------------------------|
|------------------------------------------------|
|--9---5---0---4---------------------------------|
|--9---5---0---4---------------------------------|
|--9---5---0---4---------------------------------|

want you to know that i miss you i miss you so part

listen to song for strumming pattern 

bridge....you may wannna listen to this yourself

|------------------------------------------------|
|------------------------------------------------|
|------------------------------------------------|
|-------4-4-4-4/7--------------------------------|
|-------4-4-4-4/7--------------------------------|
|-------4-4-4-4/7--------------------------------|
Comments