Finch - Letters To You Chords & Tabs

 

Letters To You Chords & Tabs

Finch Chords & Tabs

Version: 4 Type: Tab 1 rating
1 star 2 stars 3 stars 4 stars 5 stars
comments

Letters To You Tab


verse

e|------------------------------------------------|
b|------------------------------------------------|
g|------------------------------------------------|
d|---0----4----5----7-----------------------------|
a|---0-x8-4-x8-5-x8-7-x8--------------------------|
d|---0----4----5----7-----------------------------|

can you see that i wanna be there with open arms......etc

Pre Chorus

|------------------------------------------------|
|------------------------------------------------|
|------------------------------------------------|
|---4-4-4--5-5-5---0-0-0-0-0-0-0-----------------|
|---4-4-4--5-5-5---0-0-0-0-0-0-0-----------------|
|---4-4-4--5-5-5---0-0-0-0-0-0-0-----------------|

listen to song for patten kinda mutes n plays

do you notice im gone..were do you run to so far ..etc

Chorus
[ Tab from: http://www.guitartabs.cc/tabs/f/finch/letters_to_you_tab_ver_4.html ]
|------------------------------------------------|
|------------------------------------------------|
|------------------------------------------------|
|--9---7---0---4---------------------------------|
|--9---7---0---4---------------------------------|
|--9---7---0---4---------------------------------|

want you to know that i miss you i miss you so part

listen to song for strumming pattern etc.

bridge

|------------------------------------------------|
|------------------------------------------------|
|------------------------------------------------|
|-------4-4-4-4/7--------------------------------|
|-------4-4-4-4/7--------------------------------|
|-------4-4-4-4/7--------------------------------|

not to sure but this sounds similar again listen to the song for the exact timings

this tab is near enuff 100% correct cause i watched them play it live ps finch starting line 
and NFG at one show is amazing.
Comments