Finch - Letters To You Chords & Tabs

 

Letters To You Chords & Tabs

Finch Chords & Tabs

Version: 1 Type: Tab 1 rating
1 star 2 stars 3 stars 4 stars 5 stars
comments

Letters To You Tab

Finch
Letters to You (Acoustic)


   Intro
e-----------------------------------------------
B-----------------------------------------------
G--7-----6-----9-----11-----11------------------
D----0-----0-----0------0------0---0------------
A------0-----0-----0------0------0--------------
D-----------------------------------------------


   Verse
e--2----0----0---------
B--3----0----3----2----
G--2----2----0----2----
D--0----0----0----2----
A--0----4----2----0----
D--0----4--------------

[ Tab from: http://www.guitartabs.cc/tabs/f/finch/letters_to_you_tab.html ]
   Pre-Chorus
e------------0---0-----
B------------0---0-----
G--6----7----7---6-----
D--4----5----7---7-----
A--4----5----5---5-----
D--4----5----0---0-----
   
   Chorus
e--0---------2---------
B--0---------3---------
G--4----7----2----6----
D--4----5----0----4----
A--2----5----0----4----
D-------5----0----4----


   Bridge (No more looking...)
e-------------
B-------------
G--9----7-----
D--7----5-----
A--7----5-----
D--7----5-----

  
   back to chorus but singing "I've found hope"


Intro  12x
Verse  2x
Pre-chorus  2x
Chorus  2x
intro  2x
Verse  2x
Pre-chorus  2x
Chorus  2x
Intro  6x
Bridge 4x
Chorus  2x
Comments