Finch - Ender Chords & Tabs

 

Ender Chords & Tabs

Finch Chords & Tabs

Version: 1 Type: Tab 0 ratings
1 star 2 stars 3 stars 4 stars 5 stars
comments

Ender Tab

Song:Ender
Artist:Finch
Album:What It Is To Burn
Tabbed By:Marc Morgan
E Mail:with_great_power_comes_great_responsibility_@hotmail.com



This Song Is Played In Drop D Tuning Then Tuned Down a Half Step

Intro/Verse 

eb|---------------------------|
Bb|---------------------------|
Gb|---------------------------|
Db|----9------0------5------0-|
Ab|----9------0------5------0-|
Db|----9------0------5------0-|

Them four chords are the rythem guitar for the verse and intro strumming patterns arent shown.

[ Tab from: http://www.guitartabs.cc/tabs/f/finch/ender_tab.html ]
eb|-----------------------------------------|
Bb|------------------------------------5----|
Gb|----------------------------7-6-7-7------|
Db|--4h6-6-6-6h7-7-7-0-0-0-0----------------|
Ab|-----------------------------------------|
Db|-----------------------------------------|

Thats the lead riff which plays throughout the verse

Chorus

Second Riff Guitar 1:
e|----------------------------|
B|----------------------------|
G|----------------------------|
D|--9----11/12----5----0------|
A|--9----11/12----5----0------|
E|--9----11/12----5----0------|

Again strumming patterns aren't shown 


Second Riff Guitar 2:
e|---------5--------5-----|
B|--3--5h7---7--5h7---7---|
G|------------------------|
D|------------------------|
A|------------------------|
E|------------------------|

This Is played Before the 2nd chorus and at the end of the song

Listen To the song you will know which part it is.

The song fades out with the chords from the chorus.

well thats basically it any comments e-mail me

enjoy the tab.
Comments