Finch - Bitemarks And Bloodstains Chords & Tabs

 

Bitemarks And Bloodstains Chords & Tabs

Finch Chords & Tabs

Version: 2 Type: Tab 0 ratings
1 star 2 stars 3 stars 4 stars 5 stars
comments

Bitemarks And Bloodstains Tab

   
-------------------------------------------------------------------------------
		      BITEMARKS AND BLOODSTAINS - Finch
-------------------------------------------------------------------------------
Tabbed by: Tim
Email: Brainyboy790@optonline.net

Tuning: Drop D, down a half step (Db, Ab, Db, Gb, Bb, Eb)

First single off of Finch's new album "Say Hello To Sunshine" which in my opinion,
was a step in the right direction for the band. Surprisingly, there weren't any good
tabs of this song and as it is a kick-ass one, I thought I'd do the world a favor and
do it up right nice.

--------
Guitar 1
--------

Intro

eb|------------------------|
Bb|------------------------|
Gb|------------------------|
Db|-5~--5~--5~-55555555555-|
Ab|-5~--5~--5~-55555555555-|
Db|-5~--5~--5~-55555555555-|
               ........... 

Verse

eb|-----------------------------------------------------|
Bb|-----------------------------------------------------|
Gb|-----------------------------------------------------|
Db|-0-00-7-0-9-10-0-00-7-0-9-10-9-999-5-555-7-777-------| 5X
Ab|-----------------------------------------------8-888-|
Db|-----------------------------------------------------|
    . .. . . .  . . ..  .  .  . . ... . ... . ... . ...


eb|--------------|
Bb|---0~---------|
Gb|---4~-4-------|
Db|-0------5-7---| 2x
Ab|------------8-|
Db|--------------|

Then do the first part 2 more times

Rest during the pre-chorus except right before play
eb|--------------|
Bb|--------------|
Gb|--------------|
Db|-888888888888-|
Ab|-888888888888-|
Db|-888888888888-|

Chorus

eb|----------------------------------------------------|
Bb|----------------------------------------------------|
Gb|----------------------------------------------------|
Db|-0-00000-0000-8-88888-8888-5-55555-55555-55555-5555-| 
Ab|-0-00000-0000-8-88888-8888-5-55555-55555-55555-5555-|
Db|-0-00000-0000-8-88888-8888-5-55555-55555-55555-5555-|

eb|------------------------------------------------------|
Bb|------------------------------------------------------|
Gb|-----------------------------------------------555555-|
Db|-0-00000-0000-8-88888-8888-5-55555-55555-55555-555555-| 
Ab|-0-00000-0000-8-88888-8888-5-55555-55555-55555-333333-|
Db|-0-00000-0000-8-88888-8888-5-55555-55555-55555--------|



2nd Verse

eb|-----------------------------------------------------|
Bb|-----------------------------------------------------|
Gb|-----------------------------------------------------|
Db|-0-00-7-0-9-10-0-00-7-0-9-10-9-999-5-555-7-777-------| 2x
Ab|-----------------------------------------------8-888-|
Db|-----------------------------------------------------|

eb|-5-1-0-1-0---5-1-0-1-0----------------------------|
Bb|-----------3-----------3--------------------------|
Gb|--------------------------------------------------|
Db|--------------------------9-999-5-555-7-777-------|
Ab|--------------------------------------------8-888-|
Db|--------------------------------------------------|

eb|-----------------------------------------------------|
Bb|-----------------------------------------------------|
Gb|-----------------------------------------------------|
Db|-0-00-7-0-9-10-0-00-7-0-9-10-9-999-5-555-7-777-------| 2x
Ab|-----------------------------------------------8-888-|
Db|-----------------------------------------------------|

Rest during prechorus except for that B chord just prior to the chorus

Then chorus again but 4x instead of 2

Bridge

eb|-5-----5-----6-----5-----|    |--------------|
Bb|---6-----6-----6-----5---|    |--------------|
Gb|-----7-----7-----7-----6-|    |--------------|
Db|-------------------------| 5x |--------------| 4x
Ab|-------------------------|    |-8-7h8p7-5/7~-|
Db|-------------------------|    |--------------|

eb|--------------------------------------|
Bb|--------------------------------------|
Gb|----9/10\9---9-9\7/9\7--5-5555-3-3333-|
Db|-0--x-x-x--0-x-x-x-x-x--5-5555-3-3333-| 4X
Ab|-0--7/8\7--0-7-7\5/7\5--3-3333-1-1111-|
Db|-0---------0--------------------------|
[ Tab from: http://www.guitartabs.cc/tabs/f/finch/bitemarks_and_bloodstains_tab_ver_2.html ]
eb|---------------------------------00000--------------------------|
Bb|---------------------------------66666--------------------------|
Gb|---------------------------------77777--------------------------|
Db|-555555555555-888888888888-00000000000-555555555555-8888888-8-8-|
Ab|-555555555555-888888888888-00000000000-555555555555-8888888-8-8-|
Db|-555555555555-888888888888-00000000000-555555555555-8888888-8-8-|
                              ......

Then chorus 4x

Then do the first part of the bridge 2x

End on
eb|-----|
Bb|-6~--|
Gb|-7~--|
Db|-----|
Ab|-----|
Db|-----|


--------
Guitar 2
--------

Intro

eb|-------------|    |--------------|
Bb|-------------|    |--------------|
Gb|-------------|    |--------------|
Db|---3---5-3---| 3x |-------333333-|
Ab|-----5-----5-|    |-------xxxxxx-|
Db|-5-----------|    |-555555555555-|
                       ......

Verse
(He uses some sort of chorus/echo/wah-wah effect hear)
eb|-------------------------------------------------------|
Bb|-------------------------------------1h3p1---------1-3-|
Gb|-------------------------------0---0---------0---0-----| 
Db|-0-7-10-0-9h10-0-7-10-0-9h10-2---2---------2---2-------| 9x
Ab|-------------------------------------------------------|
Db|-------------------------------------------------------|

Pre-chorus
eb|-1~-|
Bb|-3~-|
Gb|-0~-|
Db|----|
Ab|----|
Db|----|

Chorus

2x
eb|---1~--------------12h10----12h10----12h10----12h10----10h8---10h8--------------------|
Bb|---3~------------------------------------------------------------------11p10-8h10p8-6-|
Gb|---x---------------------10------10--------10-------10------10------10----------------|
Db|-0-0~-8-88888-8888--------------------------------------------------------------------| 
Ab|-0-0~-8-88888-8888--------------------------------------------------------------------|
Db|-0-0~-8-88888-8888--------------------------------------------------------------------|


Then verse again 5x

Pre-chorus
eb|-1~-|
Bb|-1~-|
Gb|-x--|
Db|-2~-|
Ab|----|
Db|----|

2nd Chorus

2x
eb|---1~--------------12h10----12h10----12h10----12h10----10h8---10h8--------------------|
Bb|---3~------------------------------------------------------------------11p10-8h10p8-6-|
Gb|---x---------------------10------10--------10-------10------10------10----------------|
Db|-0-0~-8-88888-8888--------------------------------------------------------------------|       
Ab|-0-0~-8-88888-8888--------------------------------------------------------------------|
Db|-0-0~-8-88888-8888--------------------------------------------------------------------|


eb|---1~--------------13-12-------------|
Bb|---3~--------------------15-13-------|
Gb|---x---------------------------14----|
Db|-0-0~-8-88888-8888----------------15-| 2x
Ab|-0-0~-8-88888-8888-------------------|
Db|-0-0~-8-88888-8888-------------------|


Bridge

eb|------8------8-------8------8-|
Bb|---10-----10------10-----10---|
Gb|-7------7------10------9------|
Db|------------------------------| 9x
Ab|------------------------------|
Db|------------------------------|


eb|---0-0----0-0-6-6666----------0-0---0-0--6-6666---9-9-9-9--9--9-|
Bb|---6-6----6-6-6-6666-3-3333---6-6---6-6--6-6666--13131313b14r13-|
Gb|---7-7----7-7-7-7777-6-6666---7-7---7-7--7-7777-----------------|
Db|-0-0-0-0--0-0---------------0-0-0-0-0-0-------------------------| 2x
Ab|-0-----0--------------------0-----0-----------------------------|
Db|-0-----0--------------------0-----0-----------------------------|


eb|-------------------------------------------|
Bb|-------------------------------------------|
Gb|-777777777777-101010101010-9\777-99-101010-|
Db|-xxxxxxxxxxxx-xxxxxxxxxxxx-x-xxx-xx-xxxxx--|
Ab|-555555555555-88888888888--7\555-77-88888--|
Db|-------------------------------------------|

eb|--------------------------|
Bb|--------------------------|
Gb|--------------------------|
Db|-5-55555-5555-8-88888-8-8-|
Ab|-5-55555-5555-8-88888-8-8-|
Db|-5-55555-5555-8-88888-8-8-|

Then 2nd chorus again

Then first part of the bridge twice

End on
eb|-8~--|
Bb|-10~-|
Gb|-7~--|
Db|-----|
Ab|-----|
Db|-----|


| /  slide up
| \  slide down
| h  hammer-on
| p  pull-off
| ~  hold
| x  mute note
| b  bend
| r  release
===============================================================================
Comments