Finch - Awake Chords & Tabs

 

Awake Chords & Tabs

Finch Chords & Tabs

Version: 2 Type: Tab 0 ratings
1 star 2 stars 3 stars 4 stars 5 stars
comments

Awake Tab

   
#-----------------------------PLEASE NOTE-------------------------------------#
#This OLGA file is the author's own work and represents their interpretation  #
#of the song. You may only use this file for private study, scholarship, or   #
#research. Remember to view this file in Courier, or some other monospaced    #
#font. See http://www.olga.net/faq/ for more information.                     #
#-----------------------------------------------------------------------------#
band: finch
song: awake
tabbed by: stephanie(imma_heretic@yahoo.com)helped by dan(the man)
tuning: E-A-D-G-B-E (standard tuning)

there's several different ways to play this song, but this is the
way i'm hearing it. there are 2 versions of this song, and this 
tab is for the version that's on their album, what it is to burn. 
keep in mind that this song is tracked so it may be difficult to 
hear some things. i know Finch has only 2 guitarists, but there 
are more than 2 guitars going on in this song. this song is 
played in triplets.(i have no idea what that means, my guitar 
teacher just told it to me)..O_o..

Intro(Guitar1): repeat8x
e-18----------------------
b--18--18----18----18-----
g----18--18----18----18---
d----------18----18----18-
a-------------------------
e-------------------------
(on the 8th time this is played the riff changes just a tiny bit. 
after you play the riff written above, pick 18 on the high e 
string and let it ring out.)

Intro(Guitar2): played after Guitar1 plays 4x. repeat 4x
e---------------------------------------
b---------------------------------------
g---------------------------------------
D-8-11-11-11-11-11-11-11-11-11-11-11-11-
A-8-11-11-11-11-11-11-11-11-11-11-11-11-
e-6--9--9--9--9--9--9--9--9--9--9--9--9-

Verse(Guitar1):
e---14--------14----------14-----------18-----------
b-14----14--14----------14----14---18----18----18---
g-----13--------13--15------13-------18----------18-
d---------------------------------------------------
a---------------------------------------------------
e---------------------------------------------------

Verse(Guitar2): repeat4x, comes in while Guitar1 plays
e---------------------------------------
b---------------------------------------
g---------------------------------------
D-8-11-11-11-11-11-11-11-11-11-11-11-11-
A-8-11-11-11-11-11-11-11-11-11-11-11-11-
e-6--9--9--9--9--9--9--9--9--9--9--9--9-

Verse(Guitar3): repeat 4x, comes in when Guitar2 starts
e-----------
b--2-2--5---
g-3------6--
d---------7-
a-----------
e-----------
[ Tab from: http://www.guitartabs.cc/tabs/f/finch/awake_tab_ver_2.html ]
Chorus(Guitar1): repeat4x
e-------------------------------------------------------------
b-------------------------------------------------------------
g-------------------------------------------------------------
D-3-3-3-3-3-3-4-4-4-4-4-4-11-11-11-11-11-11-11-11-11-11-11-11-
A-3-3-3-3-3-3-4-4-4-4-4-4-11-11-11-11-11-11-11-11-11-11-11-11-
e-1-1-1-1-1-1-2-2-2-2-2-2--9--9--9--9--9--9--9--9--9--9--9--9-
(while this is going on, there's another guitar doing something 
but it's too confusing to hear. repeat all that's written above 
once more.)

Guitar1:3x
e--------
b--------
g--------
D-3-4-11-
A-3-4-11-
e-1-2--9-

Guitar2:played while Guitar1 plays, repeat2x
e--------------
b--------------
g--8--8--8--8--
d-6--6--6--6---
a---4--4--4--4-
e--------------

Guitar2:i have no clue how many times this riff is repeated 
but it's quite a lot, just listen to the song.
e------
b------
g-3-1--
d----4-(ring out)
a------
e------

Guitar1:playes right after Guitar2
e------
b------
g------
d-3-1--
a----4-
e------

Guitar3: if you listen, you can hear this little thing going 
on in the backround, it's repeated several times. to get this 
effect, i think they're using a flanger. if you don't have 
one, just use a pen or something.
e-1---(gradually slide)---18-
b----------------------------
g----------------------------
d----------------------------
a----------------------------
e----------------------------

Guitar4: this thing is also going on in the backround
e-----------
b-----------
g-5-------8-
d-----------
a-----------
e-----------
......jesus christ......

Guitar1:repeat4x
e-------------------------------------------------------------
b-------------------------------------------------------------
g-------------------------------------------------------------
D-3-3-3-3-3-3-4-4-4-4-4-4-11-11-11-11-11-11-11-11-11-11-11-11-
A-3-3-3-3-3-3-4-4-4-4-4-4-11-11-11-11-11-11-11-11-11-11-11-11-
e-1-1-1-1-1-1-2-2-2-2-2-2--9--9--9--9--9--9--9--9--9--9--9--9-

Guitar1:repeat4x
e--------
b--------
g--------
D-3-4-11-
A-3-4-11-
e-1-2--9-

Guitar2:repeat4x or i dunno, i got sick of counting. 
....COUNT YOURSELF DAMNIT!!!!!!!
e--------------
b--------------
g--8--8--8--8--
d-6--6--6--6---
a---4--4--4--4-
e--------------

....you can say this song is pretty excessive, if you people 
didn't notice. this took months for me finish, after hearing
this stupid song over a thousand times you start to get sick 
of it. if you find anything wrong with these tabs or you just 
find something wrong with me, drop me a line: 
imma_heretic@yahoo.com
Comments